Jason Mraz - The Remedy Chords & Tabs

 

The Remedy Chords & Tabs

Jason Mraz Chords & Tabs

Version: 3 Type: Tab

The Remedy Tab

   
Intro
-------------------------------------------------------|
G5  D#5 A#5  F5  D5  A5 A#5 B#5  -----> slide from B#5-| back to open

-------------------------------------|
-------------------------------------|
-----8-------10----------------------|
-5---8---8---10--12--7---8--10-------|    I wrote these as power chords
-5---6---8---8---12--7---8--10-- <---| even though above I denoted them
-3-------6-------10--5---6--8--------|    as root w/5th. They can be played either way


verse
------------
 G5 D5 F5  Pause

----------|
----------|
----7-----|
-5--7--3--|
-5--5--3--|
-3-----1--|

Pre Chorus
------------
 G  ?  F
-X--X--X--X---------------|
-X--8--X--6---------------|
-4--7--2--5---------------|
-5--7--3--5---------------|
-5--X--3--X---------------|
-3--8--1--6---------------|

[ Tab from: http://www.guitartabs.cc/tabs/j/jason_mraz/the_remedy_tab_ver_3.html ]
Chorus (Same as intro)
------------
G5 D#5 A#5 F5 D5 A5 A#5 B#5

--------------------------------|
--------------------------------|
-----8-------10-----------------|
-5---8---8---10--12--7---8--10--|
-5---6---8---8---12--7---8--10--|
-3-------6-------10--5---6--8---|


interlude
------------
 Gm  D# A# ?
-10--6--6-------------------|
-11--8--6--10---------------|
-12--8--7--10---------------|
-12--8--8--10---------------|
-10--6--8--12---------------|
-10--6--6--X----------------|


funky part

----------------------------------------|
------------6---------------------------|
------------6---------------------------|
------------6------------------------3--|
-----4-6-8--X---Repeat-then-end-on->-3--|
-4h6--------6------------------------1--|


Order
------
Intro
Verse
Pre Chorus
Chorus
Verse
Pre Chorus
Interlude
Funky Part
Chorus