Jason Mraz - The Remedy Acoustic Chords & Tabs

 

The Remedy Acoustic Chords & Tabs

Jason Mraz Chords & Tabs

Version: 1 Type: Tab 0 ratings
1 star 2 stars 3 stars 4 stars 5 stars
comments

The Remedy Acoustic Tab

The Remedy (Acoustic Version)

Played Moderately Fast
Intro:                                                                                
E-3—6—6—8----10----5---6---8 
B-3—6—6—8----10----5---6---8 
G-3—8—7—10—--12----7---8---10 
D-5—8—8—10—--12----7---8---10 
A-5—6—8—8----10----5---6---8 
E-3—6—6—8----10----5---6---8 
[ Tab from: http://www.guitartabs.cc/tabs/j/jason_mraz/the_remedy_acoustic_tab.html ]
Ranting Section (don’t, don’t shobee doo be do be do don’t) Repeat once
6---6---8----------------------------10---5---6---8
6---6---8----------------------------10---5---6---8
7---8--10----------------------------12---7---8--10 
8---8--10----------------------------12---7---8--10
8---6---8-------8-------9-------10---10---5---6---8 
6---6---8---8-------9--------10------10---5---6---8
Verse And 
I saw Fireworks….
3---3---1---1
3---3---1---1
4—--5—--2---3
5---5---3---3
5---3---3---1
3---3---1---1
The Remedy is the experience…..
3---3---1---1
3---3---1---1
4-—-5-—-2---3
5---5---3---3
5---3---3---1
3---3---1---1
I won’t worry my life away... (Repeat once)
6---6---8----------------------------10---5---6---8
6---6---8----------------------------10---5---6---8
7---8--10----------------------------12---7---8--10 
8---8--10----------------------------12---7---8--10
8---6---8--------8-------9------10---10---5---6---8 
6---6---8---8---------9------10------10---5---6---8
When I fall in love…
10---6---6---8----10---6---6---8
10---6---6---8----10---6---6---8
12---8---7---10---12---8---7---10
12---8---8---10---12---8---8---10
10---6---8---8----10---6---8---8
10---6---6---8----10---6---6---8
Comments