Jason Mraz - The Rainbow Connection Chords & Tabs

 

The Rainbow Connection Chords & Tabs

Jason Mraz Chords & Tabs

Version: 1 Type: Chords 0 ratings
1 star 2 stars 3 stars 4 stars 5 stars
comments

The Rainbow Connection Chords

   
Nice little cover of a classic he does. In the video I have of Jason playing this song
his guitar is tuned 1/2 step down.

Chords:
    A  F#m  D   E  DM7 C#m7 Bm Asus6
e---5---2---5---0---5---4---2---2---|
B---5---2---7---0---7---5---3---2---|
G---6---2---7---1---6---4---4---2---|
D---7---4---7---2---7---6---4---2---|
A---7---4---5---2---5---4---2---0---|
E---5---2---x---0---x---x---x---x---|

[ Tab from: http://www.guitartabs.cc/tabs/j/jason_mraz/the_rainbow_connection_crd.html ]
INTRO:
e-------------------|
B-------------------|
G----6---6--------7-|
D---------------7---|      x2
A--7----------5-----|
E-5----5------------|


VERSE:
A             F#m     D           E
Why are there so many songs about rainbows..   x4


BRIDGE:
DM7
What's so amazing that keeps us stargazing
C#m7
And what do they think we might see


CHORUS:
Bm             E            A      F#m
Someday we'll find it, the rainbow connection.
Bm              E             A
The lovers, the dreamers, and me.

OUTRO:
Same as INTRO, only end on Asus6


Enjoy!
-Adam
Comments