Jason Mraz - Little You And I Chords & Tabs

 

Little You And I Chords & Tabs

Jason Mraz Chords & Tabs

Version: 1 Type: Tab 0 ratings
1 star 2 stars 3 stars 4 stars 5 stars
comments

Little You And I Tab

Little You And In
Standard Tuning
Capo on the 3rd Fret

Part (1)
e-----------------------------------------------------------------------------------|
B-----------------------------------------------------------------------------------|
G----1-----1-------1-----1-------1-----1-------1-----1---1-------2---2---2--1----1--|
D----2-----2-------2-----2-------1-----1-------1-----1---1-------2---2---2--2----2--|
A----2-----2---2---2-----2---2---2-----2---2---2-----2---2--------------------------|
E--0---0-0---0---0---0-0---0---0---0-0---0---0---0-0---0---0-1-2--2-2--2---2--2-2---|
								            *    *
e-----------------------------------------------------------------------------------|
B--------5---5---5------------------------------------------------------------------|
G--------4---4---4------------------------------------------------------------------|
D--------4---4---4------0-----------------------------------------------------------|
A-------4---4----4------------------------------------------------------------------|
E--2-4-5---5---5----5h7--7/0--------------------------------------------------------|
   * *
* the (2x21xx) is just the first time through on the intro.  otherwise in the verse it's (2x22xx).
* the bass walk-up is also just in the intro.
[ Tab from: http://www.guitartabs.cc/tabs/j/jason_mraz/little_you_and_i_tab.html ]
Part (2)
e-----------------------------------------------------------------------------------|
B-----------------------------------------------------------------------------------|
G----4----4----4----4----4----4----4----4-------------------------------------------|
D----5----5----5----5----4----4----4----4---repeat..--------------------------------|
A--3---3-----3---3------5--5------5--5----------------------------------------------|
E-------3---3-----3---3-----3---3-----3---------------------------------------------|

Part (3)
e---------------|
B---------------|
G---------------|
D------0--------|
A---------------|
E--2h4----------|

Part (4)
e---------------------------------------------|
B--(5)-(5)-(5)--------------------------------|
G---4-x-4-x-4--4-x-4-x-4----------------------|
D---5-x-5-x-5--4-x-4-x-4---repeat..-----------|
A---3-x-3-x-3--5-x-5-x-5----------------------|
E---x-x-x-x-x--3-x-3-x-3----------------------|

-you can play that (5) at your disposal. whatever.
-the second G-type chord can be played in a sort of barred chord position:
	index finger on low E
	ring finger on A
	middle finger on BOTH! D and G (kinda bend it..or figure out something else..whatever)

Part (5)
e------------------------------|
B--------------5---------------|
G--1---1---2---4---------------|
D--2---1---2---4---------------|
A--2---2---x---4---------------|
E--0---0---2---5---------------|
Comments