Jason Mraz - Im Yours Chords & Tabs

 

Jason Mraz Chords & Tabs

Version: 1 Type: Tab 0 ratings
1 star 2 stars 3 stars 4 stars 5 stars
comments

Im Yours Tab

Iím Yours
Standard Tuning
No Capo

Intro:

Guitar 1 (playing lead melody)

|--------------------------------------|------------------------------|
|--------------------------------------|------------------------------|
|-11/13-11~~11/13-11~~11/13-----8/9----|-11/13-11~~11/13-11~~11/13----|
|---------------------------13~~----9~~|---------------------------13~|
|--------------------------------------|------------------------------|
|--------------------------------------|------------------------------|

Guitar 1 (continued...)

|---------|
|---------|
|-8/9-8-9~|
|---------|
|---------|
|---------|

Guitar 2 (all chords have some weird up beat palm-muting stuff going on
listen to the song for picking)

|--7--2--11--10--|
|--7--2--12--10--|
|--8--3--13--11--| play this chord progression two times
|--9--4--13--12--|
|--9--4--11--12--|
|--7--2--11--10--|

Verse:

|--7--2--11--10--|
|--7--2--12--10--|
|--8--3--13--11--| play this chord progression two times
|--9--4--13--12--|
|--9--4--11--12--|
|--7--2--11--10--|

Chorus:

Same As Verse and intro

Pre-verse:

Guitar 1:

|-------------------------------------------------|
|-12/14-----12/14-----12/14----12-----------------|
|-11/13-11~~11/13-11~~11/13-------11--------------|
|---------------------------13~------13-13-13/14~~|
|-------------------------------------------------|
|-------------------------------------------------|

Guitar 2:

Same As Verse,Intro, And Chorus
Verse 2:

Play The Melody the same as in verse, intro, and chorus but add a 
measure of this chord:

|-4-| 
|-6-|
|-4-|do about three beats of that and on roughly fourth beat do a 
|-6-|slide down and pause before going into the chorus
|-4-|
|-4-|

Chorus:

Same as the other chorus

Bridge:

guitar 1:

|------------------------|
|------------------------|
|-11/13-11~11~8~6~4~~4/6~| play this twice but on the second time 
|------------------------| through instead of letting the last 
|------------------------| note ring, slide down.
|------------------------|
[ Tab from: http://www.guitartabs.cc/tabs/j/jason_mraz/im_yours_tab.html ]
Guitar 2:

|--7--6--4--2--0--7\\|
|--7--8--4--2--0--9\\|
|--8--6--4--3--1--7\\| play twice and on on the second time after 
|--9--8--6--4--2--9\\| you do the slide on the last chord take a 
|--9--6--6--4--2--7\\| pause.
|--7--6--4--2--0--7\\| 

Verse 3:

Just Like verse the first verse

Chorus:

Guitar 1:

|--------------------------------------|------------------------------|
|--------------------------------------|------------------------------|
|-11/13-11~~11/13-11~~11/13-----8/9----|-11/13-11~~11/13-11~~11/13----|
|---------------------------13~~----9~~|---------------------------13~|
|--------------------------------------|------------------------------|
|--------------------------------------|------------------------------|

Guitar 2:

|-xx---x----xx---x----xx---x----xx---x-|--5-5---2-2---11-11---0-0-----|
|-xx---x----xx---x----xx---x----xx---x-|--5-5---2-2---12-12---0-0-----|
|-xx---x----xx---x----xx---x----xx---x-|--6-6---3-3---13-13---1-1-----|
|-xx---x----xx---x----xx---x----xx---x-|--7-7---4-4---13-13---2-2-----|
|-xx---x----xx---x----xx---x----xx---x-|--7-7---4-4---11-11---2-2-----|
|-xx---x----xx---x----xx---x----xx---x-|--5-5---2-2---11-11---0-0-----|



Guitar 1:

|--------------------------------------|------------------------------|
|--------------------------------------|------------------------------|
|-11/13-11~~11/13-11~~11/13-----8/9----|-11/13-11~~11/13-11~~11/13----|
|---------------------------13~~----9~~|---------------------------13~|
|--------------------------------------|------------------------------|
|--------------------------------------|------------------------------|
                     \_________________________________/
Guitar 2:                              |
                                       |
|--7--2--11--0--|\                     |
|--7--2--12--0--| |                    |
|--8--3--13--1--| |____________________| 
|--9--4--13--2--| |         Keep playing these two  
|--9--4--11--2--| |         Riffs till the song fades      
|--7--2--11--0--|/                     out
Comments