Jason Mraz - Ill Do Anything Chords & Tabs

 

Ill Do Anything Chords & Tabs

Jason Mraz Chords & Tabs

Version: 1 Type: Tab 0 ratings
1 star 2 stars 3 stars 4 stars 5 stars
comments

Ill Do Anything Tab

Tabbed by: Ryan Morrissey
Email: morsels2319@netscape.net

Easy song to strum just listen to the song and have fun.

Intro/Verse

e|---5----0----2----5----|
B|---5----0----2----7----|
G|---6----1----2----7----|
D|---7----2----4----7----|
A|---7----2----4----5----|
E|---5----0----2----x----|

     Go make your next choice...


Chorus
[ Tab from: http://www.guitartabs.cc/tabs/j/jason_mraz/ill_do_anything_tab.html ]
e|---5----5----2----1----|
B|---5----5----2----1----|
G|---6----6----2----1----|
D|---7----5----4----3----|
A|---7----7----4----3----|
E|---5----5----2----1----|

     I would if I could...

Reprise

e|---2----1----0----2------|----0----5----|
B|---2----1----0----2------|----2----6----|
G|---3----2----1----4------|----2----7----|
D|---4----3----2----4---2x-|----2----7----|
A|---4----3----2----2------|----0----5----|
E|---2----1----0----x------|----x----x----|

     If you could be nimble...

Those are all the parts you need to know.  Listen to the song to put them in the right 
 Enjoy.
Comments