Jason Mraz - I Wont Give Up Chords & Tabs

 

Jason Mraz Chords & Tabs

Version: 1 Type: Chords 0 ratings
1 star 2 stars 3 stars 4 stars 5 stars
comments

I Wont Give Up Chords

   
'I won't give up' by 'Jason mraz
I don't know if the name of the chords are correct.
So I put it in how you have to play.
Good luck


  (Intro)
E |-------------------------------------------|
B |-------------------------------------------|
G |--------------4---4-4---2---2-2---2---2-2--| 3X
D |--0--0--2--4--5---5-5---4---4-4---4---4-4--|
A |--------------5---5-5----------------------|
E |-------------------------------------------|

E |-------------------------------------------|
B |-----------3---3-3-----3---3-3-----2-------|
G |-----------2---2-2-----2---2-2-----2-------|
D |--4--2--0--2---2-2-----2---2-2-----2-------|
A |-------------------------------------------|
E |-------------------------------------------|


   Chords:
  
     Ab9      D      Bm       A       G       C      C#m
E |-------|---2---|-------|-------|---2---|-------|-------|
B |---3---|---3---|---3---|---2---|---2---|---1---|-------|
G |---x---|---2---|---4---|---2---|-------|-------|-------|
D |---4---|-------|---4---|---2---|-------|---2---|---2---|
A |---5---|-------|---2---|-------|---2---|---3---|---4---|
E |---5---|-------|-------|-------|---3---|-------|---4---|




O================================O
|  JASON MRAZ - I WON'T GIVE UP  |   CAPO 2nd Fret
O================================O

When I look into your eyes
It's like watching the night sky
Or a beautiful sunrise
So much they hold                         (intro)
And just like them old stars
I see that you've come so far
To be right where you are
How old is your soul?


            Ab9    D
I won't give up on us
             Bm        A
Even if the skies get rough
               Ab9      D
I'm giving you all my love
                  A
I'm still looking up

[ Tab from: http://www.guitartabs.cc/tabs/j/jason_mraz/i_wont_give_up_crd.html ]
And when you're needing your space
To do some navigating                     (intro)
I'll be here patiently waiting
To see what you find


                Ab9         D
'Cause even the stars they burn
           Bm           A
Some even fall to the earth
         Ab9      D
We got a lot to learn
                  A
God knows we're worth it
            Ab9
No I won't give up


         G
I don't wanna be someone who walks away so easily
                                              A
I'm here to stay and make the difference that I can make
         G
Our differences they do a lot to teach us how to use
                                               A
The tools, the skills we've got yeah we got a lot at stake

            C
And in the end, you're still my friend at least we didn't tend
For us to work we didn't break, we didn't burn
           C#m
We had to learn how to bend without the world caving in
   C                        C#m
I had to learn what I got, and what I'm not
     D
And who I am


            Ab9    D
I won't give up on us
             Bm        A
Even if the skies get rough
               Ab9      D
I'm giving you all my love
                  A
I'm still looking up
still looking up


               Ab9    D
No I won't give up on us
               Bm     A
God knows I've had enough
         Ab9     D
We got a lot to learn
             A
God know we're worth it


            Ab9    D
I won't give up on us
             Bm        A
Even if the skies get rough
               Ab9      D
I'm giving you all my love
                  A
I'm still looking up







Something like that...
Comments