Jason Mraz - Beautiful Mess Chords & Tabs

 

Beautiful Mess Chords & Tabs

Jason Mraz Chords & Tabs

Version: 1 Type: Tab 0 ratings
1 star 2 stars 3 stars 4 stars 5 stars
comments

Beautiful Mess Tab

   
-------------------------------------------------------------------------------
			     Beautiful Mess - Jason Mraz
-------------------------------------------------------------------------------
Tabbed by: JGervais

   This is the live version of Mraz playing "Live at Mix 106.5" on YouTube.  Watch it 
listen for the note/chord changes and timing.  Good luck and Enjoy!

Tuning:  Standard Tuning EADGBe

Verse and Chorus Chords
  E:  022100
  ?:  4x4400
  ?:  2x2200
  A:  577655
  B:  799877

Bridge Chords
  A:  577655
  B:  799877
  F#: 244322

INTRO Play x2

e|----12-----12----12/11--11/9--9/4------4---4---4--5/7--7/2----|
B|------12-----12-------------------------4---4-----5/7--7/2----|
G|--------13-------13/11--11/9--9/4--------4-----4--6/8--8/2----|
D|--------------------------------------------------------------|
A|--------------------------------------------------------------|
E|--0---------------------------------4-------------------------|

e|----2---2------2---2------5-----5/7--7/-----------------------|
B|-----2---2------2---2------5----5/7--7/-----------------------|
G|------2----------2----------6---6/8--8/-----------------------|
D|--------------------------------------------------------------|
A|-----------------------0--------------------------------------|
E|--2---------2-------------------------------------------------|

***********************************************************

Verse #1
e|---0---------0---------0-----5--7----------|
B|---0---------0---------0-----5--7----------|
G|---1---------4---------2-----6--8----------|     Play x3
D|---2---------4---------2-----7--9----------|
A|---2---------x---------x-----7--9----------|
E|---0---2/4---4---4/2---2-----5--7----------|

Bridge
e|---5--/--7--/--5--/--7---------------------|
B|---5--/--7--/--5--/--7---------------------|
G|---6--/--8--/--6--/--8---------------------|     Play x1
D|---7--/--9--/--7--/--9---------------------|
A|---7--/--9--/--7--/--9---------------------|
E|---5--/--7--/--5--/--7---------------------|

Chorus
e|---0---------0---------0-----5--7----------|
B|---0---------0---------0-----5--7----------|
G|---1---------4---------2-----6--8----------|     Play x2
D|---2---------4---------2-----7--9----------|
A|---2---------x---------x-----7--9----------|
E|---0---2/4---4---4/2---2-----5--7----------|

Bridge
e|---2--/--5--/--2--/--5---------------------|
B|---2--/--5--/--2--/--5---------------------|
G|---3--/--6--/--3--/--6---------------------|     Play x1
D|---4--/--7--/--4--/--7---------------------|
A|---4--/--7--/--4--/--7---------------------|
E|---2--/--5--/--2--/--5---------------------|

     Play Intro x1

e|----12-----12----12/11--11/9--9/4------4---4---4--5/7--7/2----|
B|------12-----12-------------------------4---4-----5/7--7/2----|
G|--------13-------13/11--11/9--9/4--------4-----4--6/8--8/2----|
D|--------------------------------------------------------------|
A|--------------------------------------------------------------|
E|--0---------------------------------4-------------------------|

e|----2---2------2---2------5-----5/7--7/-----------------------|
B|-----2---2------2---2------5----5/7--7/-----------------------|
G|------2----------2----------6---6/8--8/-----------------------|
D|--------------------------------------------------------------|
A|-----------------------0--------------------------------------|
E|--2---------2-------------------------------------------------|

[ Tab from: http://www.guitartabs.cc/tabs/j/jason_mraz/beautiful_mess_tab.html ]
***********************************************************
Verse #2
e|---0---------0---------0-----5--7----------|
B|---0---------0---------0-----5--7----------|
G|---1---------4---------2-----6--8----------|     Play x2
D|---2---------4---------2-----7--9----------|
A|---2---------x---------x-----7--9----------|
E|---0---2/4---4---4/2---2-----5--7----------|

Bridge
e|---5--/--7--/--5--/--7---------------------|
B|---5--/--7--/--5--/--7---------------------|
G|---6--/--8--/--6--/--8---------------------|     Play x1
D|---7--/--9--/--7--/--9---------------------|
A|---7--/--9--/--7--/--9---------------------|
E|---5--/--7--/--5--/--7---------------------|

Chorus
e|---0---------0---------0-----5--7----------|
B|---0---------0---------0-----5--7----------|
G|---1---------4---------2-----6--8----------|     Play x2
D|---2---------4---------2-----7--9----------|
A|---2---------x---------x-----7--9----------|
E|---0---2/4---4---4/2---2-----5--7----------|

Bridge
e|---2--/--5--/--2--/--5------7--------------|
B|---2--/--5--/--2--/--5------7--------------|
G|---3--/--6--/--3--/--6------8--------------|     Play x1
D|---4--/--7--/--4--/--7------9--------------|
A|---4--/--7--/--4--/--7------9--------------|
E|---2--/--5--/--2--/--5------7--------------|


***********************************************************
Verse #3
e|---0---------0---------0-----5--7----------|
B|---0---------0---------0-----5--7----------|
G|---1---------4---------2-----6--8----------|     Play x2
D|---2---------4---------2-----7--9----------|
A|---2---------x---------x-----7--9----------|
E|---0---2/4---4---4/2---2-----5--7----------|

Bridge
e|---5--/--7--/--5--/--7---------------------|
B|---5--/--7--/--5--/--7---------------------|
G|---6--/--8--/--6--/--8---------------------|     Play x1
D|---7--/--9--/--7--/--9---------------------|
A|---7--/--9--/--7--/--9---------------------|
E|---5--/--7--/--5--/--7---------------------|

Chorus
e|---0---------0---------0-----5--7----------|
B|---0---------0---------0-----5--7----------|
G|---1---------4---------2-----6--8----------|     Play x3
D|---2---------4---------2-----7--9----------|
A|---2---------x---------x-----7--9----------|
E|---0---2/4---4---4/2---2-----5--7----------|

   Play Intro x1

e|----12-----12----12/11--11/9--9/4------4---4---4--5/7--7/2----|
B|------12-----12-------------------------4---4-----5/7--7/2----|
G|--------13-------13/11--11/9--9/4--------4-----4--6/8--8/2----|
D|--------------------------------------------------------------|
A|--------------------------------------------------------------|
E|--0---------------------------------4-------------------------|

e|----2---2------2---2------5-----5/7--7/-----------------------|
B|-----2---2------2---2------5----5/7--7/-----------------------|
G|------2----------2----------6---6/8--8/-----------------------|
D|--------------------------------------------------------------|
A|-----------------------0--------------------------------------|
E|--2---------2-------------------------------------------------|


     Outro  Play x1

e|----12-----12----12/11--11/9--9/5------5---5-----5---5--------|
B|------12-----12-------------------------5---5-----5---5-------|
G|--------13-------13/11--11/9--9/5--------5---------5----------|
D|--------------------------------------------------------------|
A|--------------------------------------------------------------|
E|--0---------------------------------5----------5--------------|

e|----4---4------4---4---4---5/4--4/2---2---2--0----------------|
B|-----4---4------4---4------5-----------------0----------------|
G|------4----------4-----4---6/4--4/2---2---2--1----------------|
D|---------------------------------------------2----------------|
A|---------------------------------------------2----------------|
E|--4---------4-------------------------2---2--0----------------|


Note... Mraz finger picks throughout the song. He plays it different every time he plays 
Just pick around with the chords. This tabbed version does not have all of the finger 
as Mraz plays on the video.

************************************

| /   slide
| x   Mute note


************************************
Comments