Jason Mraz - Anything You Want Chords & Tabs

 

Anything You Want Chords & Tabs

Jason Mraz Chords & Tabs

Version: 1 Type: Tab 0 ratings
1 star 2 stars 3 stars 4 stars 5 stars
comments

Anything You Want Tab

   
Anything You Want (played during the Gratitude Café Tour) 
Jason Mraz 
11/14/09 tabbed by yubyub

I couldn't find anyone on the internet who has tabbed this, so I went ahead and did it myself. 

The rhythm is reggae-esque (played on the offbeats), so it's pretty simple. I'm 
sure you can pick it up if
you listen to the song once. 

Part (1): 
e|---------------------------------------------------------------------------------| 
B|------8---8---8---8-------7---7---7---7-------5---5---5---5-------5---5---5------| 
G|------7---7---7---7-------7---7---7---7-------5---5---5---5-------5---5---5------| 
D|------7---7---7---7-------7---7---7---7-------5---5---5---5-------5---5---5------| 
A|---------------------------------------------------------------------------------| 
E|--8-------------------7-------------------5-------------------5------------------| 

Part (2): 
e|------------------3---3-------------------3---3------| 
B|------3---3-------5---5-------3---3-------5---5------| 
G|------4---4-------4---4-------4---4-------4---4------| 
D|------5---5-------------------5---5------------------| 
A|-----------------------------------------------------| 
E|--3-----------------------3--------------------------| 
[ Tab from: http://www.guitartabs.cc/tabs/j/jason_mraz/anything_you_want_tab.html ]
Part (3): 
e|-----------------------------------------------------| 
B|------5---5-------7---7-------8---8-------7---7------| 
G|------5---5-------7---7-------7---7-------7---7------| 
D|------5---7-------7---7-------7---7-------7---7------| 
A|----------7---------------------------5--------------| 
E|--5-----------7-----------8--------------------------| 
5x555x can also be played as 57755x 
7x777x can also be played as 79977x 

Intro: 
(1) - 3 times 
(2) - 4 times 

(2) 
Courage is a triumph of the soul 
I know where I wanna walk; I know where I wanna go 
(3) 
Come put your hand in mine 
Everybody's... 
(2) 
...welcome 

(2) 
Music is what God wants us to do 
Sing a song for me; and I'll sing a song for you 
(3) 
When we put our voices together, 
We create the... 
(2) 
...harmony 

(1) 
And we bring you some love a love a love, love a love a love, love a love a love, 
love a love a lo-ove 
It's love a love a love, love a love a love, love a love a love, love a love a lo-ove 
(3) 
All I want to share with you is all my love, it's all I really... 
(2) 
...care to do 

(2) 
Champion the idea of one love 
All people the same 
One beautiful ra-a-a... 
(3) 
...a-a-aaaacce 
Making a home of this... 
(2) 
...beautiful place 
And be grateful for the precious gifts of life 
Sunshine and water 
Food from the greatest giver 

(3) 
Anything you want can be yours at anyti... 
(2) 
...me 
(3) 
Anything you want can be yours at any... 
(2) 
...time 

Horns' solo: 
(2) 

(1) 
It's love a love a love, love a love a love, love a love a love, love a love a lo-ove 
It's love a love a love, love a love a love, love a love a love, la lo-ove 
(3) 
All I want to share with you, it's all I love, it's all I really... 
(2) 
...care to do 
(3) 
Cuz anything you want can be yours at any... 
(2)... 
time 
(Same pattern) 
All I want to share with you is all my love, its all I really care to do 
Anything you want can be yours at anytime 
Anything you want can be yours at anytime
Comments