Jason Becker - Amarnath Chords & Tabs

 

Amarnath Chords & Tabs

Jason Becker Chords & Tabs

Version: 1 Type: Tab 0 ratings
1 star 2 stars 3 stars 4 stars 5 stars
comments

Amarnath Tab

     Jason Becker/Raspberry Jams
                                   "Amarnath"

-----------------------------------------------------------------------------|
-----------------------------------------------------------------------------|
-7-8-7-5-----5-7-8-7-8-7-5-------5-------------------------------------------|
--------6-7-8--------------8-6-8---------------------------------------------|
-----------------------------------------------------------------------------|
-----------------------------------------------------------------------------|

-----------------------------------------------------------------------------|
-----------------------------------------------------------------------------|
-7-8-7-5-----5-7-8-7-8-7-5-------5-7-8-7-8-7-5-------7-----------------------|
---------8-9---------------9-8-9---------------9-8\7-------------------------|
-------------------------------------------------------9-8-7-\5--------------|
---------------------------------------------------------------9-8-6\5~------|

-----------------------------------------------------------------------------|
-----------------------------------------------------------------------------|
-6-8-6-5------5-7-8-7-8-7-5-------5------------------------------------------|
--------8-7-8---------------9-6-9--------------------------------------------|
-----------------------------------------------------------------------------|
-----------------------------------------------------------------------------|
[ Tab from: http://www.guitartabs.cc/tabs/j/jason_becker/amarnath_tab.html ]
-----------------------------------------------------------------------------|
-----------------------------------------------------------------------------|
-7-8-7-5-------5-7-8-7-8-7-5-----------5-6-7-8-7-8-5-------------------------|
---------9-7-9---------------9-8-7-8-9---------------9-8-7-6-----------6-8-9-|
-------------------------------------------------------------9-8-6-8-10------|
-----------------------------------------------------------------------------|

-----------------------------7^10^7-------------------------------------------|
---------------------9-10-12----------7----11^8-------------------------------|
----8---------7-8-10---------------10-----8----10^7----11^8-------------------|
-10---8-10-11--------------------------------------9-------11^8----12^9-------|
---------------------------------------------------------------10------12^9---|
---------------------------------------------------------------------------11-|

-----------------------------------------------------------------------------|
---------------------------------10-11-12-/14-15-14-12-----------------------|
-------------------------9-10-12----------------------14-12-10---------------|
-----------------9-11-12--------------------------------------13-12-13-------|
------9-10-12-13------------------------------------------------------15-14--|
-9-11------------------------------------------------------------------------|

-----------------------------------------------------------------------------|
-----------------------------------------------------------------------------|
-----------------------------------------------------------------------------|
-----------6--4-3------------------------------------------------------------|
-12-11-14---------7-5-4----------5-8-7~--------------------------------------|
---------------------------6-5-8---------------------------------------------|

2nd time the other guitar plays the same only a minor 3rd above diatonically
Comments