Jason Antonucci - Before Chords & Tabs

 

Before Chords & Tabs

Jason Antonucci Chords & Tabs

Version: 1 Type: Tab 0 ratings
1 star 2 stars 3 stars 4 stars 5 stars
comments

Before Tab

#----------------------------------PLEASE NOTE--------------------------------#
#This file is the author's own work and represents their interpretation of the#
#song. You may only use this file for private study, scholarship, or research.#
#-----------------------------------------------------------------------------#
#-- File created with Instab - http://www.pconline.com/~smcarey/instab.html --#
#-----------------------------------------------------------------------------#

Author/Artist: Jason Antonucci
Title: Before
Email: twizzlers15@hotmail.com

------------------------------------------------------------------------------
------------------------------------------------------------------------------
------------------------------------------------------------------------------Intro
------------------------------------------------------------------------------
---9-------7------5---------5---5---7---7-------------------------------------
-7---7---5---5--3---3-----3---3---5---5---------------------------------------
                                                                              
[ Tab from: http://www.guitartabs.cc/tabs/j/jason_antonucci/before_tab.html ]
------------------------------------------------------------------------------
------------------------------------------------------------------------------
----------------777777--------------------------------------------------------Verse
-999999\555555--777777-777777-------------------------------------------------
-999999\555555--555555-777777-------------------------------------------------
-777777\333333---------555555-------------------------------------------------
                                                                              

------------------------------------------------------------------------------
------------------------------------------------------------------------------
------------------------------------------------------------------------------Chourse
-999999--121212121212--7777777--4444/55/7-------------------------------------
-999999--121212121212--7777777--4444/55/7-------------------------------------
-777777--101010101010--5555555--2222/33/5-------------------------------------
                                                                              

-0-12-0-12-0-12-13-12--0-12-0-12-13-14-13-12----------------------------------
---------------------------------------------14-12----------------------------
---------------------------------------------------14-12----------------------Lead
---------------------------------------------------------14-12----------------
---------------------------------------------------------------14-12----------
---------------------------------------------------------------------14-12h14-
                                                                             
Intro x2
Chourse
Verse x2
Chourse x2
Verse
Lead
Chourse x2
Comments