Jason Aldean - Night Train Chords & Tabs

 

Jason Aldean Chords & Tabs

Version: 1 Type: Tab 0 ratings
1 star 2 stars 3 stars 4 stars 5 stars
comments

Night Train Tab

 I guess this is more bass then guitar but its how i like to play the intro.


[ Tab from: http://www.guitartabs.cc/tabs/j/jason_aldean/night_train_tab.html ]
       INTRO
  e[--------------------------------------------------]
  b[--------------------------------------------------]
  g[--7/9*--12\5*--3\-----7/9\7*----------------------]
  d[--x-x----x-x---x---5--x-x-x----7/9/10\9\5---------]
  a[--5/7*--10\3*--5\--x--5/7\5*---x-x-x--x-x---------]
  E[-------------------3-----------5/7/8-\7\3---------]

Then i continue to play the verse in bar chords.


       VERSE
  e[---------------------------------------------------]
  b[---------------------------------------------------]
  g[-------5-------------------------------------------]
  d[--5----x---7/9/10\9\5------------------------------]
  a[--x----3---x-x--x-x-x------------------------------]
  E[--3--------5/7/-8\7\3------------------------------]
Comments