Jason Aldean - Hick Town Chords & Tabs

 

Hick Town Chords & Tabs

Jason Aldean Chords & Tabs

Version: 1 Type: Tab 0 ratings
1 star 2 stars 3 stars 4 stars 5 stars
comments

Hick Town Tab

   pm --             pm --
E|-----------------------------------------------------------------------------------------|
B|-----------------------------------------------------------------------------------------|
G|--6-6---------------6-6------------------------------------------------------------------|
D|--6-6------2^3------6-6-------2-4--------------------------------------------------------|
A|--4-4--2^4-----2^4--4-4--2^4--2-4--------------------------------------------------------|
E|------------------------------0-2--------------------------------------------------------|
                
   down strokes
   pm-/ / / / / / / / / / /  /  /  Riff 1 (1x)
E|-----------------------------------------------------------------------------------------|
B|-----------------------------------------------------------------------------------------|
G|--6--------------------------------------------------------------------------------------|
D|--6------------------------2--4----------------------------------------------------------|
A|--4------------------------2--4----------------------------------------------------------|
E|---------------------------0--2----------------------------------------------------------|
    Little Jimmy...         bronco
     

    / ^ /  / /   / / / / / / /
E|--d u d----------------------------------------------------------------------------------|
B|-----------------------------------------------------------------------------------------|
G|--6-6-6----------------------------------------------------------------------------------|
D|--6-6-6--2-4---------------------------------9-8-6-4-2-2-2--2--2----4--------------------|
A|--4-4-4--2-4---------------------------------9-8-6-4-2-2-2--2--2----4--------------------|
E|--4-4-4--0-2---------------------------------7-6-4-2-0-0-0--0--0----2--------------------|
             When we got the...             ...doooooooown in a hick town
[ Tab from: http://www.guitartabs.cc/tabs/j/jason_aldean/hick_town_tab.html ]
Comments