Jars Of Clay - Wicker Baskets Chords & Tabs

 

Wicker Baskets Chords & Tabs

Jars Of Clay Chords & Tabs

Version: 2 Type: Tab 0 ratings
1 star 2 stars 3 stars 4 stars 5 stars
comments

Wicker Baskets Tab

Author/Artist: Jars of Clay
Title: Wicker Baskets
Album: Drummer Boy (2nd release) or Sounds of Wood & Steel 2 (Windham Hill)
Transcribed by: Ben Flack
Email: walkingsebulba@hotmail.com

Lots o' thanks to GOD for helping me with this!
This instrumental was written in the back of a tour bus while
they were on the road.  It only appears on a couple hard-to-find
Jars of Clay CD's, and one Taylor Guitars CD called Sounds of
Wood & Steel 2.
Here's all the pointless details for anyone who's interested
(as quoted from Sounds of Wood & Steel 2):

Wicker Baskets
Jars Of Clay (2:50)
(Dan Haseltine/Charlie Lowell/Matt Odmark & Stephen Mason)
Bridge Building Music Inc. (BMI)

Jars Of Clay:
Taylor 422 (standard tuning),
Taylor 420-PF (standard tuning)
Produced by Stephen Lipson
Arranged by Jars Of Clay
Recorded by Heff Moraes at Secret Sound,
Nashville, TN and Aquarium, London, UK
Mixed and Engineered by Heff Moraes

"Originally written in the back lounge of our
tour bus, this piece came to full realization
while we were working on our 1997 release,
"Much Afraid".  Stephen Lipson, producer of
"Much Afraid" added his production finesse
while we were in London to create the final
mix.  Many of the songs we write start this
way, as simple, dual acoustic melodies.  Some
eventually become electric/acoustic rockers
and some, with quiet vocals added, grow into
powerful ballads.  But this song seemed
different - a quiet, reflective song that sounded
perfect just the way it was.
-Jars of Clay

1997 Essential Records, a division of
Brentwood Music, Inc.

Special Thanks:
T.J. and Robin at Taylor Guitars,
Chuck Hulse at Sam's Music in Nashville, TN
and Merridee's in Franklin, TN


Enjoy!

-----1--3----0----------0------3---------3------3--------3--------------------|
-3--------------3--1-------0-----0h1--------0-----0h1-------------------------|
----------------------0------0--------0-------0--------0----------------------|
---------------------------------2----------------2---------------------------|
------------------------------------------------------------------------------|
------------------------------------------------------------------------------|
Guitar 1

-------4----------------------------------------------------------------------|
-0---3-----2---3-2-------0-2------0-2-----------------------------------------|
---2---------2---------2--------2---------------------------------------------|
---------------------2--------2-----------------------------------------------|
-0---------0------------------------------------------------------------------|
------------------------------------------------------------------------------|
Guitar 2 (Capo 3)

-----1--3----0----------0------3---------3------3--------3--------------------|
-3--------------3--1-------0-----0h1--------0-----0h1-------------------------|
----------------------0------0--------0-------0--------0----------------------|
---------------------------------2----------------2---------------------------|
------------------------------------------------------------------------------|
------------------------------------------------------------------------------|
Guitar 1

-------4----------------------------------------------------------------------|
-0---3-----2---3-2-------0-2------0-2-----------------------------------------|
---2---------2---------2--------2---------------------------------------------|
---------------------2--------2-----------------------------------------------|
-0---------0------------------------------------------------------------------|
------------------------------------------------------------------------------|
Guitar 2 (Capo 3)

---0---0------0-----3----0---0------0-----3----0---0------0-----3----0--0---0-|
-1---1---1--3---3------1---1---1--3---3------1---1---1--3---3------1----1---1-|
------------------0---------------------0---------------------0---------2---2-|
------------------------------------------------------------------------3---3-|
------------------------------------------------------------------------------|
------------------------------------------------------------------------------|
Guitar 1

-------2-----2-----------------|-------2---5p4-2------------------------------|
-----0-----0---0-----0-----0-2-|-----0----------------------------------------|
---2-----2---------2-----2-----|---2-------------4\2p1------------------------|
-0---------------1-----2-------|-0---------------------4-2--------------------|
-------------------------------|----------------------------------------------|
-------------------------------|----------------------------------------------|
Guitar 2 (Capo 3) Play "before bar" x3

-----1--3----0----------0------3---------3------3--------3--------------------|
-3--------------3--1-------0-----0h1--------0-----0h1-------------------------|
----------------------0------0--------0-------0--------0----------------------|
---------------------------------2----------------2---------------------------|
------------------------------------------------------------------------------|
------------------------------------------------------------------------------|
Guitar 1

-------4----------------------------------------------------------------------|
-0---3-----2---3-2-------0-2------0-2-----------------------------------------|
---2---------2---------2--------2---------------------------------------------|
---------------------2--------2-----------------------------------------------|
-0---------0------------------------------------------------------------------|
------------------------------------------------------------------------------|
Guitar 2 (Capo 3)

-----1--3----0----------0------3---------3------3--------3--------------------|
-3--------------3--1-------0-----0h1--------0-----0h1-------------------------|
----------------------0------0--------0-------0--------0----------------------|
---------------------------------2----------------2---------------------------|
------------------------------------------------------------------------------|
------------------------------------------------------------------------------|
Guitar 1

-------4----------------------------------------------------------------------|
-0---3-----2---3-2-------0-2------0-2-----------------------------------------|
---2---------2---------2--------2---------------------------------------------|
---------------------2--------2-----------------------------------------------|
-0---------0------------------------------------------------------------------|
------------------------------------------------------------------------------|
Guitar 2 (Capo 3)
[ Tab from: http://www.guitartabs.cc/tabs/j/jars_of_clay/wicker_baskets_tab_ver_2.html ]
---0---0------0-----3----0---0------0-----3----0---0------0-----3----0--0---0-|
-1---1---1--3---3------1---1---1--3---3------1---1---1--3---3------1----1---1-|
------------------0---------------------0---------------------0---------2---2-|
------------------------------------------------------------------------3---3-|
------------------------------------------------------------------------------|
------------------------------------------------------------------------------|
Guitar 1

-------2-----2-----------------|-------2--------------------------------------|
-----0-----0---0-----0-----0-2-|-----0----------------------------------------|
---2-----2---------2-----2-----|---2------------------------------------------|
-0---------------1-----2-------|-0--------------------------------------------|
-------------------------------|----------------------------------------------|
-------------------------------|----------------------------------------------|
Guitar 2 (Capo 3) Play "before bar" x3

---3---3-----------1------5-3--------0-1--------------------------------------|
-3---3---3--0-1--------3------3--0-3-------3----------------------------------|
----------------2----------------------------0--------------------------------|
------------------------------------------------------------------------------|
------------------------------------------------------------------------------|
------------------------------------------------------------------------------|
Guitar 1

--------------------------2-------------------------2-------------------------|
---------0-------0------0-----5---7---9---0-------0---------------------------|
----------------------2-------------------------2-----------------------------|
------2-------2-----0-------------------------0-------------------------------|
-4-6--------6-----------------4---6---7---2-----------------------------------|
------------------------------------------------------------------------------|
Guitar 2 (Capo 3)

---3---3-----------1-------5--3---------0-1---0-1-3---------------------------|
-3---3---3--0-1------1---3------3---0-3---------------------------------------|
----------------2-----------------0-------------------------------------------|
------------------------------------------------------------------------------|
------------------------------------------------------------------------------|
------------------------------------------------------------------------------|
Guitar 1

--------------------------2-------------------------2-------------------------|
---------0-----0--------0-----5---7---9---0-------0---------------------------|
----------------------2-------------------------2-----------------------------|
------2------2---2--0-------------------------0-------------------------------|
-4-6-------6------------------4---6---7---2-----------------------------------|
------------------------------------------------------------------------------|
Guitar 2 (Capo 3)

-----1--3-------0----------0------3---------3------3--------3-----------------|
-3---------3-------3--1-------0-----0h1--------0-----0h1----------------------|
-------------0-----------0------0--------0-------0--------0-------------------|
------------------------------------2----------------2------------------------|
------------------------------------------------------------------------------|
------------------------------------------------------------------------------|
Guitar 1

-------4----------------------------------------------------------------------|
-0---3-----2---3-2-------0-----2-------0-----2--------------------------------|
---2---------2---------2-----2-------2-----2----------------------------------|
---------------------2-------------2------------------------------------------|
-0---------0------------------------------------------------------------------|
------------------------------------------------------------------------------|
Guitar 2 (Capo 3)

-----1--3--------0----------0------3---------3------3--------3----------------|
-3---------3--------3--1-------0-----0h1--------0-----0h1---------------------|
-------------0------------0------0--------0-------0--------0------------------|
-------------------------------------2----------------2-----------------------|
---------------3--------------------------------------------------------------|
------------------------------------------------------------------------------|
Guitar 1

-------4----------------------------------------------------------------------|
-0---3-----2---3-2-------0---0-2-0--------0---0-2-0---------------------------|
---2---------2---------2---2-------2----2---2-------2-------------------------|
---------------------2----------------2---------------------------------------|
-0---------0------------------------------------------------------------------|
------------------------------------------------------------------------------|
Guitar 2 (Capo 3)

---0---0------0-----3----0---0------0-----3----0---0------0-----3----0--0---0-|
-1---1---1--3---3------1---1---1--3---3------1---1---1--3---3------1----1---1-|
------------------0---------------------0---------------------0---------2---2-|
------------------------------------------------------------------------3---3-|
------------------------------------------------------------------------------|
------------------------------------------------------------------------------|
Guitar 1

-------2-----2---------|---------|-------2-|---------|-------2----0-----------|
-----0-----0---0-----0-|-----0-2-|-----0---|-----0-2-|-----0--------0---------|
---2-----2---------2---|---2-----|---2-----|---2-----|---2-----2--------------|
-0---------------1-----|-2-------|-2-------|-2-------|-0----------------------|
-----------------------|---------|---------|---------|------------------------|
-----------------------|---------|---------|---------|------------------------|
Guitar 2 (Capo 3)        1st       2nd       3rd

-2---0------------0-------0-----0----------------0----------------------------|
-------0--------0-------0-----0-----------2-------------2-----2--------2------|
---2-----2----2-------2-----2-----------2------2------2-----2--------2--------|
------------0-----------------------0-4------4------4-----4------0-2------2---|
------------------------------------------------------------------------------|
------------------------------------------------------------------------------|
Guitar 2 (Capo 3) - *Gtr 1 cont. strumming Fmaj7 @ intervals until end*

------------------------------------------------------------------------------|
---2-----------2------------2--------2-------2---------------2----------------|
-2---------2-----2--------2------2-------2-------2-------------2--------------|
---------2---2-----2--0-2------2---2---2---2---2---2-------2------------------|
-----4/5----------------------------------------------4/5---------------------|
------------------------------------------------------------------------------|
Guitar 2 (Capo 3) - *Last note not in song, optional*


Send any requests to <- electricpickboy@yahoo.com ->
Comments