Jars Of Clay - Goodbye Good Night Chords & Tabs

 

Goodbye Good Night Chords & Tabs

Jars Of Clay Chords & Tabs

Version: 2 Type: Tab 0 ratings
1 star 2 stars 3 stars 4 stars 5 stars
comments

Goodbye Good Night Tab

   
This one's easy.

Capo II, EADGBE (standard)


Chorus\Intro\Verse

E---1-1----1-1----1-1-------------------------------- |
B---3--3---3--3---3--3------------------------------- |
G---2------2------0----------------------------------.|
D-0-----------------------------0--------------------.|
A--------3------2-----------0h2---------------------- |
E-----------------------3-3-------------------------- |


Solo 1

E------------------------|
B------------------------|
G-------3-2-3-2-0--------|
D-----0------------------|
A-0h2--------------------|
E----------------3-------|


Bridge
[ Tab from: http://www.guitartabs.cc/tabs/j/jars_of_clay/goodbye_good_night_tab_ver_2.html ]
E                                  A                  Am
Strike up the band and play a song as we go walsing by
                                  (and try hard not to cry)
A                E                    F(barre or not, it don't really matter)
And fake a smile as we all say goodbye

Solo 2

E-----------------------------------------7-3-0-2-3-5-2---|
B-------------------------------------------------------4-|
G---------------------------------------------------------|
D---------------------------------------------------------|
A---------------------------------------------------------|
E-11-11-11-11-10-10-10-10-9-9-9-9-7-7-7-7-----------------|

-------------------------------------------7-13-12-11------|
-----------------------------------------------------------|
-----------------------------------------------------------|
-----------------------------------------------------------|
-----------------------------------------------------------|
11-11-11-11-10-10-10-10-9-9-9-9-7-7-7-7--------------------|

That's pretty much it. It's easy with a little practice. Just listen to the CD and u'll get it.

Enjoy,

Shorty14 (Ashlee)
Comments