Jars Of Clay - Frail Chords & Tabs

 

Frail Chords & Tabs

Jars Of Clay Chords & Tabs

Version: 6 Type: Tab 0 ratings
1 star 2 stars 3 stars 4 stars 5 stars
comments

Frail Tab

   
Author/Artist: Jars of Clay
Title: Frail
Album: Much Afraid
Transcribed by: Eric Squires
Email: bobdatomato@eudoramail.com

Despite what the offical songbook for Much Afriad
says for the chords JOC doesn't play an Am7.  What
they play is an Asus7.  I got this both from struggling
with the standard notation and from seeing them in
concert.  So enjoy.

----2-----------2-----------2--|---2-----------2-----------2/3|---------0-----|
----------3-----------3-------3|---------3-----------3--------|---3-----------|
------0-----0-----0-----0------|-----0-----0-----0-----0------|-----0-----0---|
--------2-----2-----2-----2----|-------2-----2-----2-----2----|-------2-----2-|
-------------------------------|------------------------------|-3-------------|
-0-----------------------------|-0----------------------------|---------------|
      Em7addF#                                                  C2

-------0------------|---------0-----------0--------|---0-----2----3-----2-----|
-3-------------3---3|---3-----------3-----------3--|-----3-----3----3-----3---|
---0-----0----------|-----0-----0-----0-----0-----0|-------0----0-----0-------|
-----2-----2--------|-------2-----2-----2-----2----|--------------------------|
-------------3---2--|-0----------------------------|--------------------------|
--------------------|------------------------------|-3------------------------|
                      Asus7              Repeat 4x   G

---3----|---3-----2-----0-----2-----3--|---0-----2-----3-----2-----3----|---3-|
-----3--|-----3-----3-----3-----3------|-----3-----3-----3-----3-----3--|-----|
-0-----0|-------0-----0-----0-----0---0|-------0-----0-----0-----0-----0|-----|
--------|------------------------------|--------------------------------|-----|
--------|-3----------------------------|--------------------------------|-3---|
--------|------------------------------|-3------------------------------|-----|
          C2                             G                                C2

------2-----0----2-----3--||--2-----2-----2-----2---2h3p2p0|---------0--------|
--3-----3----3-----3------||----3-----3-----3-----3--------|---3-----------3--|
----0-----0----0-----0---0||------2-----2-----2------------|-----0-----0------|
--------------------------||0------------------------------|-------2-----2----|
--------------------------||-------------------------------|-3----------------|
--------------------------||-------------------------------|------------------|
                            D                                C2

-----0--------|---2-----2-----2-----2---2h3p2p0|---------0-----------0--------|
-----------3--|-----3-----3-----3-----3--------|---3-----------3-----------3--|
-0-----0-----0|-------2-----2-----2------------|-----0-----0-----0-----0------|
---2-----2----|-0------------------------------|-------2-----2-----2-----2----|
--------------|--------------------------------|-3----------------------------|
--------------|--------------------------------|------------------------------|
                D                                C2

--|---2-----2-----2-----2---2h3p2p0|---------0-----------0---------|---2------|
--|-----3-----3-----3-----3--------|---3-----------3-----------3---|-----3----|
-0|-------2-----2-----2------------|-----0-----0-----0-----0-----0-|-------2--|
--|-0------------------------------|-------2-----2-----2-----2-----|-0--------|
--|--------------------------------|-3-----------------------------|----------|
--|--------------------------------|-------------------------------|----------|
    D                                C2                              D

-2-----2-----2---2h3p2p0|---------0-----------0------------|---------0-------|
---3-----3-----3--------|---3-----------3-------------3---3|---3-----------3-|
-----2-----2------------|-----0-----0-----0-----0----------|-----0-----0---0-|
------------------------|-------2-----2-----2-----2--------|-------2-----2---|
------------------------|-3-------------------------3---2--|-0---------------|
------------------------|----------------------------------|-----------------|
                          C2                                 Asus7

-|---2-----------2-----------2--|---2-----------2-----------2--|---------0----|
-|---------3-----------3-------3|---------3-----------3-------3|---3----------|
-|-----0-----0-----0-----0------|-----0-----0-----0-----0------|-----0-----0--|
-|-------2-----2-----2-----2----|-------2-----2-----2-----2----|-------2------|
-|------------------------------|------------------------------|-3------------|
-|-0----------------------------|-0----------------------------|--------------|
   Em7   (1st verse)                                             C2

---------0------------|---------0----------0-------|---2-----------2----------|
---3-------------3---3|---3-----------3----------3-|---------3-----------3----|
-----0-----0----------|-----0-----0----0-----0-----|-----0-----0-----0-----0--|
-2-----2-----2--------|-------2-----2----2-----2---|-------2-----2-----2------|
---------------3---2--|-0--------------------------|--------------------------|
----------------------|----------------------------|-0------------------------|
                        Asus7                        Em7

--|---2-----------2----------|---------0-----------0------------|---------0---|
--|---------3-----------3----|---3-----------3-------------3---3|---3---------|
--|-----0-----0-----0-----0--|-----0-----0-----0-----0----------|-----0-------|
-2|-------2-----2-----2-----2|-------2-----2-----2-----2--------|-------2-----|
--|--------------------------|-3-------------------------3---2--|-0-----------|
--|-0------------------------|----------------------------------|-------------|
                               C2                                 Asus7

-----------0------|---0-----2-----3-----2-----3----|---3-----2-----0-----2----|
-----3-----------3|-----3-----3-----3-----3-----3--|-----3-----3-----3-----3--|
-0-----0-----0----|-------0-----0-----0-----0-----0|-------0-----0-----0------|
---2-----2-----2--|--------------------------------|--------------------------|
------------------|--------------------------------|-3------------------------|
------------------|-3------------------------------|--------------------------|
                    G (Chorus)                       C2

---3---|---0-----2-----3-----2-----3----|---3-----2-----0-----2-----3--|---2--|
-----3-|-----3-----3-----3-----3-----3--|-----3-----3-----3-----3-----3|------|
-0-----|-------0-----0-----0-----0-----0|-------0-----0-----0-----0----|------|
-------|--------------------------------|------------------------------|-0----|
-------|--------------------------------|-3----------------------------|------|
-------|-3------------------------------|------------------------------|------|
         G                                C2                             D
[ Tab from: http://www.guitartabs.cc/tabs/j/jars_of_clay/frail_tab_ver_6.html ]
-----2-----2-----2---2h3p2p0|---------0-----------0--------|---2-----2-----2--|
-3-----3-----3-----3--------|---3-----------3-----------3--|-----3-----3------|
---2-----2-----2------------|-----0-----0-----0-----0-----0|-------2-----2----|
----------------------------|-------2-----2-----2-----2----|-0----------------|
----------------------------|-3----------------------------|------------------|
----------------------------|------------------------------|------------------|
                             C2                              D

-----2---2h3p2p0|---------0-----------0------------|---------0----------------|
-3-----3--------|---3-----------3-------------3---3|---3-----------3----------|
---2------------|-----0-----0-----0-----0----------|-----0-----0---0----------|
----------------|-------2-----2-----2-----2--------|-------2-----2-2----------|
----------------|-3-------------------------3---2--|-0-------------0----------|
----------------|----------------------------------|--------------------------|
                  C2                                 Asus7             to

-----------------|---2-----------2-----------2-|---2-----------2-----------2--|
-----------------|---------3-----------3------3|---------3-----------3--------|
-----------------|-----0-----0-----0-----0-----|-----0-----0-----0-----0------|
-----------------|-------2-----2-----2-----2---|-------2-----2-----2-----2----|
-----------------|-----------------------------|------------------------------|
-----------------|-0---------------------------|-0----------------------------|
 2nd verse         Em7

--|---------0-----------0------------|---------0-----------0---------|---2----|
-3|---3-----------3-------------3---3|---3-----------3-----------3---|--------|
--|-----0-----0-----0-----0----------|-----0-----0-----0-----0-------|-----0--|
--|-------2-----2-----2-----2--------|-------2-----2-----2-----2---2-|--------|
--|-3-------------------------3---2--|-0-----------------------------|--------|
--|----------------------------------|-------------------------------|-0------|
    C2                                 Asus7                           Em7

---------2----------2--|---2-----------2-----------2--|---------0-------------|
---3----------3-------3|---------3-----------3-------3|---3-----------3-------|
-----0-----0----0------|-----0-----0-----0-----0------|-----0-----0-----0-----|
-2-----2----2-----2----|-------2-----2-----2-----2----|-------2-----2-----2---|
-----------------------|------------------------------|-3---------------------|
-----------------------|-0----------------------------|-----------------------|
                         Em7                            C2

-0------------|---------0-----------0--------||--0-----2-----3-----2------3---|
---------3---3|---3-----------3-----------3--||----3-----3-----3------3-------|
---0----------|-----0-----0-----0-----0------||------0-----0-----0------0-----|
-----2--------|-------2-----2-----2-----2---2||-------------------------------|
-------3---2--|-0----------------------------||-------------------------------|
--------------|------------------------------||3------------------------------|
                Asus7                          G (Chorus)

----|---3-----2-----0-----2-----3-----|---0-----2-----3-----2------3----|-----|
-3--|-----3-----3-----3-----3-----3---|-----3-----3-----3------3-----3--|-----|
---0|-------0-----0-----0-----0-----0-|-------0-----0-----0------0-----0|-----|
----|---------------------------------|---------------------------------|-----|
----|-3-------------------------------|---------------------------------|-3---|
----|---------------------------------|-3-------------------------------|-----|
      C2                                G                                 C2

-3-----2-----0-----2-----3----|---2-----2-----2-----2---2h3p2p0|----------0---|
---3-----3-----3-----3-----3--|-----3-----3-----3-----3--------|----3---------|
-----0-----0-----0-----0-----0|-------2-----2-----2------------|------0-------|
------------------------------|-0------------------------------|--------2-----|
------------------------------|--------------------------------|-3------------|
------------------------------|--------------------------------|--------------|
                                D                                C2

-----------0--------|---2-----2-----2-----2---2h3p2p0|---------0----------0---|
-----3-----------3--|-----3-----3-----3-----3--------|---3-----------3--------|
-0-----0-----0-----0|-------2-----2-----2------------|-----0-----0-----0------|
---2-----2-----2----|-0------------------------------|-------2-----2-----2----|
--------------------|--------------------------------|-3----------------------|
--------------------|--------------------------------|------------------------|
                      D                                C2

--------|---2-----2-----2-----2---2h3p2p0|---------0-----------0--------|-----|
-----3--|-----3-----3-----3-----3--------|---3-----------3-----------3--|-----|
-0-----0|-------2-----2-----2------------|-----0-----0-----0-----0-----0|-----|
---2----|-0------------------------------|-------2-----2-----2-----2----|-0---|
--------|--------------------------------|-3----------------------------|-----|
--------|--------------------------------|------------------------------|-----|
          D                                C2                             D

-2-----2-----2-----2---2h3p2p0|---------0-----------0------------|---------0--|
---3-----3-----3-----3--------|---3-----------3-------------3---3|---3--------|
-----2-----2-----2------------|-----0-----0-----0-----0----------|-----0------|
------------------------------|-------2-----2-----2-----2--------|-------2----|
------------------------------|-3-------------------------3---2--|-0----------|
------------------------------|----------------------------------|------------|
                                C2                                 Asus7

-----------------||---2-----------2----------2--|---2-----------2-------------|
-----3-----------||---------3-----------3------3|---------3-----------3-------|
-0---0-----------||-----0-----0-----0----0------|-----0-----0-----0-----0-----|
---2-2-----------||-------2-----2-----2----2----|-------2-----2-----2-----2---|
-----0-----------||-----------------------------|-----------------------------|
-----------------||-0---------------------------|-0---------------------------|
                    Em7   (Ending)

-2/3|---------0-----------0------------|---------0----------0----------||---2-|
----|---3-----------3-------------3---3|---3-----------3----------3----||-----|
----|-----0-----0-----0-----0----------|-----0-----0-----0----0------0-||-----|
----|-------2-----2-----2-----2--------|-------2-----2-----2----2------||-----|
----|-3-------------------------3---2--|-0-----------------------------||-----|
----|----------------------------------|-------------------------------||-0---|
      C2                                 Asus7            repeat 7x?      Em7

------------2-----------2--|---2-----------2-----------2--||---------2--|-----|
------3-----------3-------3|---------3-----------3-------3||-------3----|-----|
--0-----0-----0-----0------|-----0-----0-----0-----0------||-----0------|-----|
----2-----2-----2-----2----|-------2-----2-----2-----2----||---2--------|-----|
---------------------------|------------------------------||------------|-----|
---------------------------|-0----------------------------||-0----------|-----|
                                          Repeat 7x?

Send any requests to <- electricpickboy@yahoo.com ->
Comments