Jars Of Clay - Frail Chords & Tabs

 

Frail Chords & Tabs

Jars Of Clay Chords & Tabs

Version: 5 Type: Tab 0 ratings
1 star 2 stars 3 stars 4 stars 5 stars
comments

Frail Tab

Author/Artist: Jars of Clay
Title: Frail
Album: Much Afraid
Transcribed by: John Knight
Email: jtknight@alltel.net

The piece uses standard tuning.  This TAB is not exact but should get you close
enough to play along with the CD.  I'm not TAB expert.  Constructive comments are welcome.

----2-----------------2-----------------2----|----2-----------------2---------|
-------------3-----------------3-----------3-|-------------3------------------|
----------0-----0--------0--------0----------|----------0-----0--------0------|
-2-----2-----------2--------2--------2-------|-2-----2-----------2--------2---|
---------------------------------------------|--------------------------------|
---------------------------------------------|--------------------------------|


----------2----|-------------0-----------------0------------------------------|
-3-----------3-|----3-----------------3-----------------3-----3-----3---------|
----0----------|-------0--------0--------0--------0--------------------0------|
-------2-------|----------2--------2--------2-----------------------------2---|
---------------|-3-----------------------------------3-----2-----0------------|
---------------|--------------------------------------------------------------|


-0-----------------0-------------|----2-----------------2----------------2----|
----------3-----------------3----|-------------3-----------------3------------|
----0--------0--------0--------0-|----------0-----0--------0--------0---------|
-------2--------2--------2-------|-2-----2-----------2--------2--------2------|
---------------------------------|--------------------------------------------|
---------------------------------|--------------------------------------------|
 Repeat 3x up to here............

---|----2-----------------2-----------------2h3-|-------------0---------------|
-3-|-------------3-----------------3------------|----3-----------------3------|
---|----------0-----0--------0--------0---------|-------0--------0--------0---|
---|-2-----2-----------2--------2--------2------|----------2--------2---------|
---|--------------------------------------------|-3---------------------------|
---|--------------------------------------------|-----------------------------|


----0-----------------------------0-----------------0-------------|----0------|
-------------3-----3-----3-----------------3-----------------3----|-------3---|
-------0--------------------0--------0--------0--------0--------0-|-----------|
-2-----------------------------2--------2--------2--------2-------|-----------|
----------3-----2-----0-------------------------------------------|-----------|
------------------------------------------------------------------|-3---------|

[ Tab from: http://www.guitartabs.cc/tabs/j/jars_of_clay/frail_tab_ver_5.html ]
----2--------3--------2--------3-------|----3--------2--------0--------2------|
-------3--------3--------3--------3----|-------3--------3--------3--------3---|
-0--------0--------0--------0--------0-|----------0--------0--------0---------|
---------------------------------------|--------------------------------------|
---------------------------------------|-3------------------------------------|
---------------------------------------|--------------------------------------|


----3-------|----3--------2--------0--------2--------3-------|----3--------2--|
-------3----|-------3--------3--------3--------3--------3----|-------3--------|
-0--------0-|----------0--------0--------0--------0--------0-|----------0-----|
------------|------------------------------------------------|----------------|
------------|------------------------------------------------|-3--------------|
------------|-3----------------------------------------------|----------------|


--------0--------2--------3-----|----2-----2------2------2---2h3p2-0-|--------|
--3--------3--------3-------3---|------3-----3------3----------------|----3---|
-----0--------0--------0------0-|--------2-----2------2----2---------|--------|
--------------------------------|-0----------------------------------|--------|
--------------------------------|------------------------------------|-3------|
--------------------------------|------------------------------------|--------|
                                |............................................

-------0-----------------0-------------|----2--------2--------2-------2-------|
----------------3-----------------3----|-------3--------3--------3------------|
-0--------0--------0--------0--------0-|----------2--------2--------2----2----|
----2--------2--------2--------2-------|--------------------------------------|
---------------------------------------|-0------------------------------------|
---------------------------------------|--------------------------------------|
 .....repeat 3x........................|

-2h3p2-0|-------------0-----------------0----------------------------0--------|
--------|----3-----------------3----------------3-----3-----3-----------------|
--------|-------0--------0--------0-------0--------------------0--------0-----|
--------|----------2--------2--------2----------------------------2--------2--|
--------|-3----------------------------------3-----2-----0--------------------|
--------|---------------------------------------------------------------------|


----|-------------------------------------------------------------------------|
--3-|-------------------------------------------------------------------------|
--0-|-------------------------------------------------------------------------|
--2-|-------------------------------------------------------------------------|
----|-------------------------------------------------------------------------|
----|-------------------------------------------------------------------------|
     The rest of the song repeats the various sections above.

Send any requests to <- electricpickboy@yahoo.com ->
Comments