Jars Of Clay - Flood Chords & Tabs

 

Flood Chords & Tabs

Jars Of Clay Chords & Tabs

Version: 4 Type: Tab 0 ratings
1 star 2 stars 3 stars 4 stars 5 stars
comments

Flood Tab

VIOLIN 1: (of the quartet)
e------------------------------------------------------------------|
b------------------------------------------------------------------|
g------------------------------------------------------------------|
d------------------------5--------5--6--8--6--5--------------------|
a-------------5--6--8------6--8-------------------8--6-------------|
e---8--7--8--------------------------------------------------------|

e---------------------------------------------------------------|
b---------------------------------------------------------------|
g-----5--8--7--5------5--7--7--5-----5---5--7--8--7--5----------|
d-5-----------------8----------------8--------------------------|
a---------------------------------------------------------------|
e---------------------------------------------------------------|

e---------------------------------------------------------------|
b----------6---8----6-------------------------------------------|
g--7--8-----------------8---7-----------------------------------|
d---------------------------------------------------------------|
a---------------------------------------------------------------|
e---------------------------------------------------------------|

        "calm the storms..."
e----------------------------------------------------------------------|
b--------------------------------------------6-------------------------|
g-------5--8--7-----------------5--8--7-----7-------------5--8---------|
d--5----------------8--------5-------------------8--6--5---------------|
a------------------------8---------------------------------------------|
e----------------------------------------------------------------------|

e-------6---------------------------------------|
b---8--------9---8--6--6------------------------|If Icantswim...."
g----------------------------------8---7--------|
d-----------------------------------------------|
a-----------------------------------------------|
e-----------------------------------------------|
[ Tab from: http://www.guitartabs.cc/tabs/j/jars_of_clay/flood_tab_ver_4.html ]
Here it is in the right key Cminor (E-modal tuning)

VIOLIN SOLO:
e-----------------------------------------------------------|
b-----------------------------------------------------------|
e-----------------------------------------------------------|
b----------------------8---------8-9-11-9-8-----------------|
a-------------5-6-8------6-8--------------------8--6--------|
e--8-7-8----------------------------------------------------|

e---------------------------------------------------------------|
b---------------------------------------------------------------|
e------8-11-10-8------8-10-10-8-------8-8-10-11-10-8------------|
b-8------------------11----------------11-----------------------|
a---------------------------------------------------------------|
e---------------------------------------------------------------|

e----------------------------------------------------------|
b-------------6---8----6-----------------------------------|
e--10- 11-----------------11---10--------------------------|
b----------------------------------------------------------|
a----------------------------------------------------------|
e----------------------------------------------------------|

        "calm the storms..."
e---------------------------------------------------------------|
b---------------------------------------------------------------|
e------8-11-10------------11-10-13-10-------------8-11----------|
b-8----------------11----8--------------------11-9-8------------|
a-----------------------8---------------------------------------|
e---------------------------------------------------------------|

e-------------------------------------------|
b---8--11---9--8--6--6----4--3--------------|If I cantswim...."
e-------------------------------------------|
b-------------------------------------------|
a-------------------------------------------|
e-------------------------------------------|

I hope this clears the mud a little   (Cheezer42@aol.com)
                                        JB Dean
Comments