Jars Of Clay - Flood Chords & Tabs

 

Flood Chords & Tabs

Jars Of Clay Chords & Tabs

Version: 6 Type: Chords 0 ratings
1 star 2 stars 3 stars 4 stars 5 stars
comments

Flood Chords

   
Song: Flood
Artist: Jars of Clay
Tuning: EABEBE
Capo 3

Intro
   A5 Fmaj7 G6/9 Cmaj7    A5  Fmaj7 G6/9 Em7
E[--0---0----0----0--------0----0----0----0----]
B[--5---1----3----0--------5----1----3----3----]
E[--0---0----0----0--------0----0----0----0----]
B[--5---1----3----8--------5----1----3----2----]
A[--x---x----x----x--------x----x----x----3----]
E[--5---1----3----8--------5----1----3----0----]
 
Verse1 (Palm Muted)
    A5  G6   Em7  
E[--x----x----x---]
B[--x----x----x---]
E[--0----0----0---]		(4x)
B[--5----3----2---]
A[--x----x----3---]
E[--5----3----0---]
Rain rain on my face
Hasn't stopped raining for days
Dark skies all around
Can't feel my feet touching the ground 

PreChorus1
    A5  G6   Em7  
E[--0----0----0---]
B[--0----0----0---]
E[--0----0----0---]		(4x)
B[--5----3----2---]
A[--x----x----3---]
E[--5----3----0---]
But if I can't swim after forty days
And my mind is crushed by the thrashing waves
Lift me up so high that I cannot fall, Lift me up

Chorus1
   A5 Fmaj7 G6/9 Cmaj7    A5  Fmaj7 G6/9 Em7
E[--0---0----0----0--------0----0----0----0----]
B[--5---1----3----0--------5----1----3----3----]
E[--0---0----0----0--------0----0----0----0----]	(2x)
B[--5---1----3----8--------5----1----3----2----]
A[--x---x----x----x--------x----x----x----3----]
E[--5---1----3----8--------5----1----3----0----]
Lift me up  (When I'm falling)
Lift me up  (I'm weak and I'm dying)
Lift me up  (I need You to hold me)
Lift me up  (Keep me from drowning again)

Tag
   A5  
E[--0----]
B[--5----]
E[--0----]	
B[--5----]
A[--x----]
E[--5----]
 
Verse2 (Palm Muted)
    A5   G6  Em7    
E[--x----x----x---]
B[--x----x----x---]
E[--0----0----0---]		(4x)
B[--5----3----3---]
A[--x----x----2---]
E[--5----3----0---]
Downpour on my soul
Splashing in the ocean, I'm losing control
Dark sky all around
Can't feel my feet touching the ground
[ Tab from: http://www.guitartabs.cc/tabs/j/jars_of_clay/flood_crd_ver_6.html ]
PreChorus2
    A5  G6   Em7  
E[--0----0----0---]
B[--0----0----0---]
E[--0----0----0---]		(4x)
B[--5----3----2---]
A[--x----x----3---]
E[--5----3----0---]
But if I can't swim after forty days
And my mind is crushed by the thrashing waves
Lift me up so high that I cannot fall, Lift me up

Chorus2
   A5 Fmaj7 G6/9 Cmaj7    A5  Fmaj7 G6/9 Em7
E[--0---0----0----0--------0----0----0----0----]
B[--5---1----3----0--------5----1----3----3----]
E[--0---0----0----0--------0----0----0----0----]
B[--5---1----3----8--------5----1----3----2----]
A[--x---x----x----x--------x----x----x----3----]
E[--5---1----3----8--------5----1----3----0----]
Lift me up  (When I'm falling)
Lift me up  (I'm weak and I'm dying)
Lift me up  (I need You to hold me)

   A5 Fmaj7 G6/9 Cmaj7    A5  Fmaj7 G6/9 
E[--0---0----0----0--------0----0----0-------------]
B[--5---1----3----0--------5----1----3-------------]
E[--0---0----0----0--------0----0----0-<<-let ring-]
B[--5---1----3----8--------5----1----3-------------]
A[--x---x----x----x--------x----x----x-------------]
E[--5---1----3----8--------5----1----3-------------]
Lift me up  (Keep me from drowning again)

Bridge
String interlude

PreChorus3
    A5  G6   Em7  
E[--0----0----0---]
B[--0----0----0---]
E[--0----0----0---]		(4x)
B[--5----3----2---]
A[--x----x----3---]
E[--5----3----0---]
If I can't swim after forty days
And my mind is crushed by the thrashing waves
Lift me up so high that I cannot fall, Lift me up

Chorus3
   A5 Fmaj7 G6/9 Cmaj7    A5  Fmaj7 G6/9 Em7
E[--0---0----0----0--------0----0----0----0----]
B[--5---1----3----0--------5----1----3----3----]
E[--0---0----0----0--------0----0----0----0----]	(4x)
B[--5---1----3----8--------5----1----3----2----]
A[--x---x----x----x--------x----x----x----3----]
E[--5---1----3----8--------5----1----3----0----]
Lift me up  (When I'm falling)
Lift me up  (I'm weak and I'm dying)
Lift me up  (I need You to hold me)
Lift me up  (Keep me from drowning again)  (repeat lyrics 2x)

Tag
   A5  
E[--0----]
B[--5----]
E[--0----]	
B[--5----]
A[--x----]
E[--5----]

Tabbed by Robby Valderrama
www.celede.net
Comments