Jars Of Clay - Flood Chords & Tabs

 

Flood Chords & Tabs

Jars Of Clay Chords & Tabs

Version: 3 Type: Bass Tab 0 ratings
1 star 2 stars 3 stars 4 stars 5 stars
comments

Flood Bass Tab

Tunning Regular
Notes on the E-string are the regular notes, but playing the song regular can
get kinda boring. So I made some fill notes that spices up the bass part
significantly, when played fast. Remember that these are just fill notes, so
don't slow down the regular notes any. Play the E-string notes exactly as if you
were playing the song normally.  At the end of the bridge, the eight notes played
back to back also crescendo from say mp to ff and into the verse.

This tab is one hundred percent accurate, as it came from the original music

Enjoy



Intro x1:
G|------------------------------|--------------------------------------------|
D|------------------------------|--------------------------------------------|
A|---10----6-----8-----13-13-13-|---10----6-----8----5-----------------------|
E|88---8\44-4/66--6/11----------|88---8\44-4/66--6\33-3----------------------|
[ Tab from: http://www.guitartabs.cc/tabs/j/jars_of_clay/flood_btab_ver_3.html ]
Verse x8:
G|---------------------------------------------------------------------------|
D|---------------------------------------------------------------------------|
A|--10---8----5---5----------------------------------------------------------|
E|8---6-6-6\3--3-3-3---------------------------------------------------------|

Chorus x2:
G|------------------------------|--------------------------------------------|
D|------------------------------|--------------------------------------------|
A|---10----6-----8-----13-13-13-|---10----6-----8----5-----------------------|
E|88---8\44-4/66--6/11----------|88---8\44-4/66--6\33-3----------------------|

Bridge(after violin solo) x2:
G|---------------------------------------------------------------------------|
D|---------------------------------------------------------------------------|
A|---------------------------------------------------------------------------|
E|8--\4--/6--/11--8--\4--/6--\3---8--\4--/6--/11--8--\4--/66666666-----------|
Comments