Jars Of Clay - Flood Chords & Tabs

 

Flood Chords & Tabs

Jars Of Clay Chords & Tabs

Version: 1 Type: Bass Tab 0 ratings
1 star 2 stars 3 stars 4 stars 5 stars
comments

Flood Bass Tab

"Flood" By Jars Of Clay
Album Jars of Clay
(c)1995 Brentwood Music
Transcribed by Skip Woodstock
Posted by Jeremy Kozdon Icepick111@aol.com

[ Tab from: http://www.guitartabs.cc/tabs/j/jars_of_clay/flood_btab.html ]
Guitar Intro verse                                            4x                
--------------|------------------------------------------------|
--------------|------------------------------------------------|
--------------|--3--3--3-----1--1--1---------------------------|
--------------|--------------------------3--3--3-----3--3--3---|
                                                                                
   Pre-Chorus                                                4x                 
--------------------------------------------------------------|
--------------------------------------------------------------|
----3--3--3--3-----1--1--1--1---------------------------------|
----------------------------------3--3--3--3-----3--3--3--3---|
                                                                                
Chorus                   2x                                                     
--------------------------|
--------------------------|
-3--------6--3------------|
----4--6--------4--6--3---|
                                                                                
2nd Chorus                                                                      
----------------------------------------------------------|
----------------------------------------------------------|
-3--3--3--3-----3--3--3--3-----3--3--3--3-----3--3--3--3--|
----------------------------------------------------------|
                                                                                
                                             Stop                               
-------------------------------------------------|
-------------------------------------------------|
3--3--3--3-----3--3--3--3-----3--3--3--3------3--|
-------------------------------------------------|
                                                                                
   2nd Verse    Pre chorus   Chorus    Stop on this note                        
--------------------------------------------------------
--------------------------------------------------------
----------------------------------------6---------------
--------------------------------------------------------
                                                                                
Middle Break (Strings)                                                          
|---------------------
|---------------------
|---------------------
|---------------------
                                                                                
Pre Chorus, Chorus, 2x, end ont build up on "c" note
Comments