Jars Of Clay - Five Candles Chords & Tabs

 

Five Candles Chords & Tabs

Jars Of Clay Chords & Tabs

Version: 1 Type: Bass Tab 0 ratings
1 star 2 stars 3 stars 4 stars 5 stars
comments

Five Candles Bass Tab

   
Five Candles (You Were There)
Jars of Clay
Album: Much Afraid
(c)1997 Bridge Building Music/Pogostick Music/BMI
Tab by: Brian Germer 

Verse riff: 
G-------------------------------------------------------------|
D-------------------------------------------------------------|
A--------------------------------4--4--------2--2-------------|
E---0--0------4\---0--0------4-------------------------4\-----|

Pre-chorus:
G-------------------------------------------------------------|
D-------------------------------------------------------------|
A---0--0-------------------5--5---------0--0------------------|
E--------------4--4-------------------------------------------|
[ Tab from: http://www.guitartabs.cc/tabs/j/jars_of_clay/five_candles_btab.html ]
Chorus:
G-------------------------------------------------------------|
D-------------------------------------------------------------|
A--------------5--5--------0--0-------------------------------|
E---0--0--------------------------------0--0------------------|
   
G-------------------------------------------------------------|
D-------------------------------------------------------------|
A--------------------------0--0-------------------------------| (go into verse riff)
E---0--0-------2--2---------------------0--0----------4\------|

Verse 2
Pre-chorus

Variations on Chorus 2nd time:
G-------------------------------------------------------------|
D-------------------------------------------------------------|
A--------------5--5--------0--0-------------------------------|
E---0--0--------------------------------0--0------4\----------|

G-------------------------------------------------------------|
D-------------------------------------------------------------|
A--------------5h7-5-------0--0---------5h7-7-----------------|
E---0--0------------------------------------------------------|

Bridge:

D   A   E  F#  (2x)
D   A   B

C   D   F# A
C   D

Chorus

051898 - http://members.xoom.com/Jarstabs

Comments