Janitor Joe - Head Chords & Tabs

 

Head Chords & Tabs

Janitor Joe Chords & Tabs

Version: 2 Type: Bass Tab 0 ratings
1 star 2 stars 3 stars 4 stars 5 stars
comments

Head Bass Tab

JANITOR JOE                    HEAD
Bass tab transcribed by geniefur (grrrl_grrrms@hotmail.com)

Intro:
G --------------------|---------------------
D -9-9-9-9-7-7--------|-9-9-9-9-7-7---------
A --------------------|---------------------
E --------------------|---------------------


Verse:
G --------------------|---------------------
D --------------------|---------------------
A ---------3-5-3------|---------------------
E -0-3-0-3------------|---------------------
[ Tab from: http://www.guitartabs.cc/tabs/j/janitor_joe/head_btab_ver_2.html ]
Chorus:
burning in my head..
G --------------------|---------------------
D -3-5-5-5-5-3--------|---------------------
A --------------------|---------------------
E --------------------|---------------------

Bridge:
G --------------------|---------------------
D -9-9-9-9-7-7--------|---------------------
A --------------------|---------------------
E --------------------|---------------------


song format:
* intro once
* verse x8
* chorus x3
* bridge once
* then back to verse again.. repeated throughout whole song

~ have fun giving yr fingers a work out! heart, geniefur.
Comments