Janez Detd - Anti Anthem Chords & Tabs

 

Anti Anthem Chords & Tabs

Janez Detd Chords & Tabs

Version: 1 Type: Tab 0 ratings
1 star 2 stars 3 stars 4 stars 5 stars
comments

Anti Anthem Tab

   
Janez detd
   anti-anthem
-----------------
"intro/main riff"
E|----------------------------------------------------------
B|--------------11-11-11-11\-10-----------------------------
G|--------------9--9--9--9-\-8------------------------------
D|-/8-8-8-8-8-8---------------------------------------------
A|-/6-6-6-6-6-6-----------------9-9-9-9-9-11-11-11-11-11-11-
E|------------------------------7-7-7-7-7-9--9--9--9--9--9--

"verse" gtr.1 (lenn.)
E|--------11--------------11---------------11-------
B|---11------11------11------11-------11------11----
G|-8----8-------8-------8--------8-------8--------8-
D|-----------------8--------------------------------
A|----------------------------------11--------------
E|--------------------------------------------------
[ Tab from: http://www.guitartabs.cc/tabs/j/janez_detd/anti_anthem_tab.html ]
           fill gtr.2 (nic.)
           E|-------
	   B|-------
	   G|-------
	   D|-------
	   A|-6-----
 	   E|---6-4-
  (palm mute)
E|-----------------------------------------------------------------
B|-----------------------------------------------------------------
G|-----------------------------------------------------------------
D|-8-8-8-8-8-8-8-8-8-8-5-5-5-5-5-6-6-6-6-6-6-8-8-8-8-8-8-8-8-8-8-6-
A|-6-6-6-6-6-8-8-8-8-8-3-3-3-3-3-6-6-6-6-6-6-6-6-6-6-6-8-8-8-8-8-6-
E|-----------6-6-6-6-6-----------4-4-4-4-4-4-----------6-6-6-6-6-4-

"chorus"
E|---------------------------------------------------
B|---------------------------------------------------
G|---------------------------------------------------
D|-8-8-8-8-8-8-6-6-6-6-6-6-6-6-6-6-4-4-4-4-/-6-6-6-6-
A|-6-6-6-6-6-6-4-4-4-4-4-6-6-6-6-6-2-2-2-2-/-4-4-4-4-
E|-----------------------4-4-4-4-4-------------------

"bridge"
  gtr1. (herhalen)
E|----------
B|----------
G|----------
D|-5-8--5-8-...
A|----------
E|----------
   gtr.2
E|---------------------------------------
B|-----------------------------8-8-8-8-8-
G|-----------------------------6-6-6-6-6-
D|-8-8-8-8-8-8-8-8-8-8-5-5-5-5-----------
A|-6-6-6-6-6-6-6-6-6-6-3-3-3-3-----------   X...
E|---------------------------------------

         (dan de eerste noten van het refrein pm)

tabbed by: *SOH* bentonX  
Comments