Janes Addiction - Up The Beach Live Chords & Tabs

 

Up The Beach Live Chords & Tabs

Janes Addiction Chords & Tabs

Version: 1 Type: Tab 0 ratings
1 star 2 stars 3 stars 4 stars 5 stars
comments

Up The Beach Live Tab

-------------------------------------------------------------------------------
		up the beach (live version) – Janes addiction
-------------------------------------------------------------------------------
Tabbed by: Mr. xxx
Email:

Tuning: standard tuning eadgbe

e|---------------------------------------------------------------------------|
B|---------------------------------------------------------------------------|
G|--7~---------------------------------7~--9-7-9-7---9-7-11-7---7~-----------|
D|--7~-----7/9—9/10---10/12----12/16---7~--x-x-x-x---x-x-x--x---7~-hold------|
A|--5~---------------------------------5~--7-5-7-5---7-5-9--5---5~-----------|
E|---------------------------------------------------------------------------|

e|---------------------------------------------------------------------------|
B|---------------------------------------------------------------------------|
G|---7---7---7-7---7---7---7-7---7---9---9/11---11---11---11-11---11---11----|
D|---x---x---x-x---x---x---x-x---x-------x-x----x----x----x--x----x----x-----|
A|---5---5---5-5---5---5---5-5---5-------7/9----9----9----9--9----9----9-----|
E|---------------------------------------------------------------------------|

e|---------------------------------------------------------------------------|
B|---------------------------------------------------------------------------|
G|--11---11---11-11---11---12-12/14---14-14—12h14p1211-12~---11-9-9h11-97~-|
D|--x----x----x--x----x----x----------x--x-----------------------------------|
A|--9----9----9--9----9----10---------12-12----------------------------------|
E|---------------------------------------------------------------------------|

e|------------------15-14-12--------------------------------------15-14-12---|
B|---------------------------15-14-12----------------------------------------|
G|-7-5-4-4/542~---------------------14-12-11-------------------------------|
D|---------------------------------------------14-12-11-12-14----------------|
A|------------------------------------------------------------12-------------|
E|---------------------------------------------------------------------------|
[ Tab from: http://www.guitartabs.cc/tabs/j/janes_addiction/up_the_beach_live_tab.html ]
e|---------------------------------------------------------------------------|
B|-15-14-12------------------------------------------------------------------|
G|----------14-12-11---------------12---11---7---6~~---12---11---7---6~~-----|
D|-------------------14-12-11-12---x----x----x---x-----x----x----x---x-------|
A|---------------------------------10---9----5---4~~---10---9----5---4~~-----|
E|---------------------------------------------------------------------------|
                    1 step           ½ step
e|--------------------15^-14--12-------15^-14--12--15-14-15/17~-15--15-15-14-|
B|------------------------------15-14~-----------15--------------------------|
G|-12---11---12---14~~-------------------------------------------------------|
D|-x----x----x----x----------------------------------------------------------|
A|-10---9----10---12~~-------------------------------------------------------|
E|---------------------------------------------------------------------------|
                                                                  1-½ steps
e|14p12p10h12-14-15-14-15/17-17~--19-17-19-15-15h17p15-14~~-15~-/17~-20^-----|
B|---------------------------------------------------------------------------|
G|---------------------------------------------------------------------------|
D|---------------------------------------------------------------------------|
A|---------------------------------------------------------------------------|
E|---------------------------------------------------------------------------|

e|-15-14-12-------------------------------------15-14-12---------------------|
B|----------15-14-12-------------------------------------15-14-12------------|
G|-------------------14-12-11-------------------------------------14-12-11---|
D|----------------------------14-12-11-12-14---------------------------------|
A|-------------------------------------------12------------------------------|
E|---------------------------------------------------------------------------|

e|---------------------------------------------------------------------------|
B|---------------------------------------------------------------------------|
G|--------------12---11---7---6~~---12---11---7---6~~--14~--14~-12-14-16-14---|
D|14-12-11-12---x----x----x---x-----x----x----x---x--------------------------|
A|--------------10---9----5---4~~---10---9----5---4~~------------------------|
E|---------------------------------------------------------------------------|

e|---------------------------------------------------------------------------|
B|--14--14-15-14h15h17-15-14--17-15-14--17-15-14—15h17p15-14-----15~~14------|
G|16--16--------------------16--------16--------16----------16-14--------16--|
D|---------------------------------------------------------------------------|
A|---------------------------------------------------------------------------|
E|---------------------------------------------------------------------------|

e|--------------------------------------------------------17--14----12--14---|
B|--14h15p14-----------------------------------------------------15----------|
G|----------16--14--12--11--12--14--12--11-----------------------------------|
D|------------------------------------------14--12--11-12--------------------|
A|---------------------------------------------------------------------------|
E|---------------------------------------------------------------------------|
  
e|---------14----------------------------------------------------------------| fast sl.
B|15—-14/12--12-14-12--------------------------------------------------------|
G|-------------------14-12-14-12--11-----------------------------------------|
D|------------------------------14--12-11------------------------------------|                                         vibrato w/ bar       
Comments