Janes Addiction - True Nature Chords & Tabs

 

True Nature Chords & Tabs

Janes Addiction Chords & Tabs

Version: 2 Type: Tab 0 ratings
1 star 2 stars 3 stars 4 stars 5 stars
comments

True Nature Tab

   
e---------------------
b---------------------
g---------------------    x4     Play twice after the scratching
D--3-2-0-0-12-10-0-3-0
A--3-2-0-0-12-10-0-3-0
D--3-2-0-0-12-10-0-3-0

e-x-x-x-x-x-x-x-x-x-x-   
b-x-x-x-x-x-x-x-x-x-x-
g-x-x-x-x-x-x-x-x-x-x-
D-x-x-x-x-x-x-x-x-x-x-   x2      Play again after part 1
A-x-x-x-x-x-x-x-x-x-x-
D-x-x-x-x-x-x-x-x-x-x-
[ Tab from: http://www.guitartabs.cc/tabs/j/janes_addiction/true_nature_tab_ver_2.html ]
e-------------------------------------------
b---8x12--7x12--6x12--7x12--8x12--7x12--6x24
g-------------------------------------------
D-------------------------------------------
A-------------------------------------------
D-------------------------------------------

e----------------10x8-13x8----------
b-7b(8)--x16------------------------
g------5----------------------------
D-----------------------------------
A-----------------------------------
D-----------------------------------

Thats all i can figure out for now but hopefully i or someone else
will figure out the rest of the song.
Comments