Janes Addiction - Ted Just Admit It Chords & Tabs

 

Ted Just Admit It Chords & Tabs

Janes Addiction Chords & Tabs

Version: 3 Type: Tab 0 ratings
1 star 2 stars 3 stars 4 stars 5 stars
comments

Ted Just Admit It Tab

   
Band      :  Janes Addiction
Song      :  Ted, just admit it...
Album     :  Nothings Shocking
Tabbed by :  Quistopia
Tuning    :  E A D G

i havent put it in the structure although i have seperated the two halfs of the song the 
half is repeated, and i havent put the number of times each part is played most of the 
etc are only played once so you just need to repeat the main parts loads of times and
listen to the dynamics of the drums etc to know the changes.... any corrections please
email me.

the_urban_poet@hotmail.com          cheers.
_______________________________________________________


  Intro         Main riff

G -------------|---------------------------------------|
D ---7-5-7-5---|-7-5--------------7-5------------------|
A -------------|----5-5/9-7-7--5-----5-5/9-7-7\5---5---|
E -------------|-------------7-------------------7-----|


  Pre chorus link

G -----------------------------------------------------|
D ----77-77-77-7---7-5-------------7-\-5--5--5-5/7-----|
A ---0--0--0-----------7-5-3-0--0---0-0--0--0-0--------|
E -----------------------------------------------------|


 First chorus thing

G ----------|
D ----------|
A -0--------| rest
E ----------|


  Link             back to main riff
[ Tab from: http://www.guitartabs.cc/tabs/j/janes_addiction/ted_just_admit_it_tab_ver_3.html ]
G -------------||--------------------------------------|
D -----4---4-5-||-7-5--------------7-5-----------------|
A -------7-----||----5-5/9-7-7--5-----5-5/9-7-7\5---5--|
E -0-----------||-------------7-------------------7----|


  pre chorus

G -----------------------------------------------------|
D ----77-77-77-7---7-5-------------7-\-5--5--5-5/7-----|
A ---0--0--0-----------7-5-3-0--0---0-0--0--0-0----0---|
E -----------------------------------------------------|


  "sex is violent" bit

G --------------------|
D --------------------|
A -0---3-5---5-3------|
E --------------------|

_______________________________________________________

totally changes at this bit.. where perry keeps sayin sex is voilent..


G ----------|
D ----------|
A -7--------| rest
E -0--------|


  fast bit

G -----9\------9\----|
D -------------------|
A -/7------/7--------|
E -------------------|


  slow bit

G ---------------|
D -----7---7-----|
A ------7---7----|
E --5----5-------|


  Fast Bit

G -----9\------9\----|
D -------------------|
A -/7------/7--------|
E -------------------|


  Slow Bit

G ---------------|
D -----7---7-----|
A ------7---7----|
E --5----5-------|

  Ending

G ---9\------9\-------|
D --------------------|
A ---7\------7\-------|
E -0-------0----------|
Comments