Janes Addiction - Stop Chords & Tabs

 

Stop Chords & Tabs

Janes Addiction Chords & Tabs

Version: 2 Type: Tab 0 ratings
1 star 2 stars 3 stars 4 stars 5 stars
comments

Stop Tab

##################################################################################
# This file is the author's own work and represents their interpretation of the  #
# song. You may only use this file for private study, scholarship, or research.  #
##################################################################################

STOP
Jane`s Addiction

intro, clean tone, strummed to a modified `bo didley` beat
repeat 2 X:
e --------------------------------------------------
B --------------------------------------------------
G --7-x-6-x-7-x-7--6-/-7---7-x-7-x-7--8-8-8-8-8-8---
D --6-x-6-x-6-x-6--5-/-6---6-x-6-x-6--7-7-7-7-7-7---
A --7-x-7-x-7-x-7--6-/-7---7-x-7-x-7--8-8-8-8-8-8---
E --------------------------------------------------

riff 1, heavy distortion, repeat 2 times
e -----------------------
B -----------------------
G -----------------------
D --9-9-----7-7----------
A --7-7--9--5-4-7-/-9----
E -------7------5-/-7----

e -----------------------
B -----------------------
G -----------------------
D --9-9-----7-7~~--------
A --7-7--9--5-4~~--------
E -------7---------------

e -----------------------
B -----------------------
G -----------------------
D --9-9-----7-7---9------
A --7-7--9--5-4-7-7--2~--
E -------7------5----0~--

No One!... No One!  gonna, Stop!

e ---------------------------------------------------
B ---------------------------------------------------
G -14fb~-14fb~-12h14p12h14p12----12~~--14fbr12h14~~--
D ----------------------------14---------------------
A ---------------------------------------------------
E ---------------------------------------------------
[ Tab from: http://www.guitartabs.cc/tabs/j/janes_addiction/stop_tab_ver_2.html ]
  (    esta parte 3 veces      )    esto va al final de la 3ra vez
e ---------------------------------------------------------------------
B ---------------/12~~-----/10~~------/14-----14~~-----/12~~----/10~~--
G -2h4p2------/11------/9~---------/13---13-13-----/11------/9---------
D -------2~~-----------------------------------------------------------
A ---------------------------------------------------------------------
E ---------------------------------------------------------------------

riff 2, heavy distortion, lot`s of embellishments 
e --------------------------
B --------------------------
G -----9--------------------
D -2-x-9-x-----5-5--7-7-----
A -2-x-7-x-----5-5--7-7-----
E -0-x---x--0--3-3--5-5-----

chords:  E (E7)  G (with lots of effects & variations)

(solo, i`m not gonna even bother to pretend)


e -------------------------------
B -------------------------------
G -------------------------------
D --2---1-/-4--4-/-6--6-/-12-----
A --2---2-/-5--5-/-7--7-/-12-----
E --0----------------------------
No one`s gonna stop!


*******************************************************************************************************

*******************************************************************************************************


"Stop"
                                Janes Addiction
                                                                               
---------------------------------------------------------||---------------------
---------------------------------------------------------||---------------------
--------------------------------------------------------*||--------------9------
7--7--7--7--7--7--5/7--7--7--7--7--7--7--9---9---9---9--*||--7--7--7--5--7------
9--9--9--9--9--9--7/9--9--9--9--9--9--9--11--11--11--11--||--9--9--9--7---------
---------------------------------------------------------||---------------------
                                                                                
                                                                                
----------------------------------------------------------||---------------------
----------------------------------------------------------||---------------------
-\7---------------------9--9--7--------------9\7---------*||---------------------
\-5--5/7----7--7--7--5--7--7--5--7--7--7--5--7\5-5/7--2--*||---------------------
-----7/9----9--9--9--7-----------9--9--9--7------7/9--2---||---------------------
-----------------------------------------------------
Comments