Janes Addiction - Stop Chords & Tabs

 

Stop Chords & Tabs

Janes Addiction Chords & Tabs

Version: 2 Type: Bass Tab 0 ratings
1 star 2 stars 3 stars 4 stars 5 stars
comments

Stop Bass Tab

   
"Stop" --Jane's Addiction, _Ritual de lo Habitual_

Intro (after 4 measures of Guitar)	
			                      1st   2nd	
G ||--------------|-----------|-------------|----||-----||
D ||--------------|-----------|-------------|--.-||-----||
A ||-7-7--676-----|-7-7--676--|-7-7--676----|--.-||---7-||
E ||-----5----5-0-|-----5---5-|-----5---5-0-|-0--||-5---||
     e e.ssss e e   e e.ssseq   e e.sssse e   w     h.e 

Main
[ Tab from: http://www.guitartabs.cc/tabs/j/janes_addiction/stop_btab_ver_2.html ]
G ||---------------|-----|---||-----||---------------|---------------|
D ||---------------|-.---|---||-.---||---------------|---------------|
A ||---7--67--67---|-.x3-|---||-.x3-||---------------|---------------|
E ||-0---5---5---0-|-----|-5-||-----||-0-0000-2-2222-|-3-3333-4-4444-|
     e.s sse sse e.        w           e.seee e.seee   e.seee e.seee

G |---------------|-------------------|---------|| "Gimme that...
D |---------------|-------------------|---------|| 
A |---------------|-------------------|-------R-||
E |-5-5555-7-7777-|-88-99-10-10-11-11-|-12-12---||
    e.seee e.seee   ee ee  e  e  e  e    e  e h.

Bridge

G ||-x/9--11-|-7--|-x/9--11-|-17-||
D ||---------|----|---------|----||
A ||-x/7--12-|-5--|-x/7--12-|-15-||
E ||---------|----|---------|----||
       h.  q   w      h.      w

Then repeat Intro...

Comments