Janes Addiction - My Cats Name Is Maceo Chords & Tabs

 

My Cats Name Is Maceo Chords & Tabs

Janes Addiction Chords & Tabs

Version: 2 Type: Tab 0 ratings
1 star 2 stars 3 stars 4 stars 5 stars
comments

My Cats Name Is Maceo Tab

##################################################################################
# This file is the author's own work and represents their interpretation of the  #
# song. You may only use this file for private study, scholarship, or research.  #
##################################################################################

My Cat's Name Is Maceo
Jane's Addiction
From the album Kettle Whistle
Tab by John Houx (lucky13@saber.net)

Drum Intro

4 bars of bass

Enter Guitar:

RIFF 1 (x2) [Enter on second bar]
                            v
-------------------------------------------------
---/3-3---4------5-5-6-6------3---1--------------
---/3---3------3-----3--------3---1--------------
---------------------------------------/5-3------
--------------------------------------------5----
-------------------------------------------------
[ Tab from: http://www.guitartabs.cc/tabs/j/janes_addiction/my_cats_name_is_maceo_tab_ver_2.html ]
-------------------------------------------------
---/3-3---4------5-5-6-6------3---1--------------
---/3---3------3-----3--------3---1--------------
----------------------------------------1-3------
--------------------------------------------1----
-------------------------------------------------


RIFF 2 (2x)

-1-1-1-1-1-1-1-1-1-1-1-1-1-1-1-1-1-1-1-1-1-1-1-1-----------
-3-3-3-3-3-3-3-3-3-3-3-3-3-3-3-3-3-3-3-3-3-3-3-3-----4-3---
---------------------------------------------------------3-
-----------------------------------------------------------
-----------------------------------------------------------
-----------------------------------------------------------

RIFF 1 (2x)


RIFF 2 (2x)

La la, la la la la la la la
La la, la la, la la la
La la, la la, la la la la, la la la

RIFF 1 (2x)

RIFF 2 (4x)

La la, la la la la la la la
La la, la la, la la la
La la, la la, la la la la, la la la

[Sax solo]

RIFF 1 (1x)


RIFF 1 (Second part only)

-------------------------------------------------
---/3-3---4------5-5-6-6------3---1--------------
---/3---3------3-----3--------3---1--------------
----------------------------------------1-3------
--------------------------------------------1----
-------------------------------------------------

He's a little man in a cat's body

RIFF 2 (4x)

...and so ends a goofy song
Comments