Janes Addiction - My Cats Name Is Maceo Chords & Tabs

 

My Cats Name Is Maceo Chords & Tabs

Janes Addiction Chords & Tabs

Version: 1 Type: Tab 0 ratings
1 star 2 stars 3 stars 4 stars 5 stars
comments

My Cats Name Is Maceo Tab

Artist: Jane's Addiction
Album: Kettle Whistle
Song: My Cats Name is Maceo [Track 03]
[ Tab from: http://www.guitartabs.cc/tabs/j/janes_addiction/my_cats_name_is_maceo_tab.html ]
Verse:
e-----------------------------------------------------
b--3--1----------3--3--3--4----3--4--4--6--6----------
g--3--1----------3--3--3--3----3--3--3--3--3---------- Repeated
d--------1--0-----------------------------------------
a-------------1---------------------------------------
E-----------------------------------------------------


Chorus:
XXX331

e----------           ----------
b--4--4--3-           -6--4--3--
g--3--3--3-    OR     -3--3--3--
d----------           ----------
a----------           ----------
E----------           ----------
 
Comments