Janes Addiction - Mountain Song Chords & Tabs

 

Mountain Song Chords & Tabs

Janes Addiction Chords & Tabs

Version: 3 Type: Tab 0 ratings
1 star 2 stars 3 stars 4 stars 5 stars
comments

Mountain Song Tab

Submitted by: Al Avery
mail@alavery.net

[ Tab from: http://www.guitartabs.cc/tabs/j/janes_addiction/mountain_song_tab_ver_3.html ]
Bass(and verse figure):
G---------0-----------------------|
D-0h2-2-2---2-2-2-0h2-2-2---------|
A---------------------------------|
E-------------------------0-0-0-0-|
Guitar(after bass *4):
E-----------------------------------------------------|
B----------8--8--88-8/-----------8--8--88-8/----------|
G----------7--7--77-7/-----------7--7--77-7/----------|
D-2----x-x-6--6--66-6/--2----x-x-9--6--66-6/--2-------|
A-2----x-x-7--7--77-7/--2----x-x-7--7--77-7/--2-------|
E-0----x-x--------------0----x-x--------------0-------|
                                            'Coming down the mountain'
Guitar(verse):
E-------------------------------|
B-------------------------------|
G-------------------------------|
D-7/9-----12\9-----7/9----------|
A-5/7-----10\7-----5/7----------|
E----------------------0-0-0-0--|
                       |  PM  |
Guitar(chorus):
E------------------------------2-2----3-3-2--2------------------|
B---------8-8-7--7-------------3-3----3-3-3--3------------------|
G-7-7-----7-7-7--7--5-5s4------4-4----4-4-4--4----55556666------|
D-7-7-----7-7-7--7-------------0-0----0-0-0--0------------------|
A-5-5---------------3-3s2-------------------------33334444------|
E---------------------------------------------------------------|


ALT Guitar(verse): - sometime Dave uses this live
E-------------------------------|
B-------------------------------|
G---------0h2-------------------|
D-0h2-----0h2-------0h2---------|
A-0h2---------------0h2---------|
E-0-----------------0---0-0-0-0-|
                       |  PM  |


Look for the solo in other submitted TABs

End:
E-------------------------------|
B-------------------------------|
G-------------------------------|
D-7/9-----12\9-----7/9-2--------|
A-5/7-----10\7-----5/7-2--------|
E----------------------0--------|
Comments