Janes Addiction - Mountain Song Chords & Tabs

 

Mountain Song Chords & Tabs

Janes Addiction Chords & Tabs

Version: 1 Type: Bass Tab 0 ratings
1 star 2 stars 3 stars 4 stars 5 stars
comments

Mountain Song Bass Tab

   
                          Janes Addiction
                          "Mountain Song"
                      Transcribed by: Lynn Smith
                        Tabbed by: Jordy Smith
                          Standard Tuning


               Verse
G---------------------------------
D---------5-----------------------
A-5h7-7-7---7-7-7-5h7-7-7---------
E-------------------------0-0-0-0-
[ Tab from: http://www.guitartabs.cc/tabs/j/janes_addiction/mountain_song_btab.html ]
                       Chorus
G-----------------------------------------------------
D-----------------------------------------------------
A-5-5-5/10-10-10-5-5-5\3-2-5-5-5/10-10-10-5-5-1/5-5-6-
E-----------------------------------------------------


     Outro
G---------------
D-----5---------
A-5h7---7-5h7---
E-------------0-

Thats 99.9% correct. If you have any questions, comments, or 
corrections, e-mail me at: bass_kid_2000@yahoo.com
Comments