Janes Addiction - Jane Says Chords & Tabs

 

Jane Says Chords & Tabs

Janes Addiction Chords & Tabs

Version: 7 Type: Tab

Jane Says Tab

Jane Says Tab by Janes Addiction, www.Ultimate-Guitar.Com

Jane Says - Janes Addiction

Main Riff

e|--3------3-3-3-------------------------------|
B|--3------3-3-3-2------2-2-2------------------|
G|--4------4-4-4-2------2-2-2-4p2--------------|
D|--5------5-5-5-2------2-2-2----4p2-----------|
A|--5------5-5-5-0------0-0-0------------------|
E|--3------3-3-3-------------------------------|
[ Tab from: http://www.guitartabs.cc/tabs/j/janes_addiction/jane_says_tab_ver_7.html ]
Repeat Throught Out most of The Song
_______________________________________________________

Riff 2

e|---3---3-3---3---3--3--3--3-------3---3-3---3---3--3--3--3--|
B|---3---3-3---3---2--2--2--2-------3---3-3---3---2--2--2--2--|
G|---4---4-4---4---0--0--0--0-------4---4-4---4---0--0--0--0--|
D|---5---5-5---5---0--0--0--0-------5---5-5---5---0--0--0--0--|
A|---5---5-5---5--------------------5---5-5---5---------------|
E|---3---3-3---3--------------------3---3-3---3---------------|

Listen to The Song to Get Strumming pattern down

Thats it