Janes Addiction - Jane Says Chords & Tabs

 

Jane Says Chords & Tabs

Janes Addiction Chords & Tabs

Version: 6 Type: Tab 0 ratings
1 star 2 stars 3 stars 4 stars 5 stars
comments

Jane Says Tab

   
----------------------------------------------------------------------------
			 Jane says - Janes Addiction
----------------------------------------------------------------------------
Tabbed by:barn_04
Email:greasyturban@hotmail.com

Tuning:EADGBe(low to high)

I couldn't find an accurate version of this song on this site so i decided to make an accurate one myself
      G5          A5       
e|----x-x-x---x---x--x--x--x--x---x--x--------------------------------------|
B|----x-x-x---x---x--x--x--x--x---x--x--------------------------------------|
G|----x-x-x---x---2--2--2--4--2---2--0--------------------------------------|
D|----5-5-5---x---2--2--2--2--2---2--0--------------------------------------|
A|----5-5-5---x---0--0--0--0--0---0--0--------------------------------------|
E|----3-3-3---x---x--x--x--x--x---x--x--------------------------------------|
[ Tab from: http://www.guitartabs.cc/tabs/j/janes_addiction/jane_says_tab_ver_6.html ]
Jane says 
I'm done with Sergio 
He treats me like a ragdoll 
She hides
The television 
Says I don't owe him nothing, 
But if he comes back again 
Tell him to wait right here for me
Or just
Try again tomorrow
I'm gonna kick tomorrow
Gonna kick tomorrow

Jane says 
Have you seen my wig around? 
I feel naked without it
She knows 
They all want her to go 
But that's O.K. man
She dont like them anyway 
Jane says 
She's goin away to spain
When she gets my money saved
I'm gonna start tomorrow
I'm gonna kick tomorrow
Gonna kick tomorrow

She gets mad
Starts to cry 
She takes a swing but
She cant hit
She don't mean no harm 
She just don't know
What else to do about it

Jane goes
To the store at 8
She walk up on St. Andrews 
She waits
And gets her dinner there 
She pulls her dinner
From her pocket
Jane says 
I've never been in love
I don't know what it is 
Only knows if someone wants her
I want them if they want me
I only know they want me

She gets mad
And she starts to cry
She takes a swing man
She can't hit
She don't mean no harm 
She just dont know
What else to do about it

Jane says
Jane says

thats it...you pretty much do that riff for evry line of the song
=============================================================================
Comments