Janes Addiction - Jane Says Chords & Tabs

 

Jane Says Chords & Tabs

Janes Addiction Chords & Tabs

Version: 3 Type: Tab 0 ratings
1 star 2 stars 3 stars 4 stars 5 stars
comments

Jane Says Tab

   
##################################################################################
# This file is the author's own work and represents their interpretation of the  #
# song. You may only use this file for private study, scholarship, or research.  #
##################################################################################

Jane says
(Janes addiction)

intro/verse

-3--3--3-3-3------------------
-3--3--3-3-3-2--2-2-2-2-2---0-
-3--0--0-0-0-2--2-2-2-4-2-2-0-
-0--0--0-0-0-2--2-2-2-----4-0-
-------------0--0-0-0---------
-3--3--3-3-3------------------

chorus
-3--3--3-3-3--3-2--2-2-2-0-0-
-3--3--3-3-3--3-3--3-3-3-3-3-
-0--0--0-0-0--0-0--0-0-0-0-0-
-0--0--0-0-0--0-0--0-0-0-0-0-
-----------------------------
-3---------------------------


*************************************************************************************************************

*************************************************************************************************************


from: tschmid@andy.bgsu.edu (Dr. Frank N. Furter)

[ Tab from: http://www.guitartabs.cc/tabs/j/janes_addiction/jane_says_tab_ver_3.html ]
From Mason.L.Allen@dartmouth.edu (Mason L. Allen)
 Subject: TAB: Had a Dad (Jane`s Addiction)
 Organization: Dartmouth College, Hanover, NH
 Date: Wed, 27 Oct 1993 04:12:26 GMT
 
 i don`t know why on earth i`m doing this, considering i have a gov. 6
 midterm tomorrow i haven`t really prepared for... but here goes:
 
 HAD A DAD 
 by Jane`s Addiction of the Nothing`s Shocking album
 
 
 i dont`t have the time to do this right, so here`s the main chords &
 riffs, roughly speaking...
 

Minor correction. It's like this:

   A  G      A   Amaj7sus4+15 (or something like that) (slide down)
 e----------------------------------
 B----------------8-\---------------
 G-2---------2----7-\---------------
 D-2---------2----6-\---------------
 A-0--5-5-5--0----7-\---------------
 E----3-3-3-------------------------


Come now, do you really think that exclamation point is necessary? 
Besides, you left out this section:


E E G G G A
E E G G G A
E E G G G Amaj7, etc...not hard to figure out.
 

|> 
Comments