Janes Addiction - Jane Says Chords & Tabs

 

Jane Says Chords & Tabs

Janes Addiction Chords & Tabs

Version: 1 Type: Tab 0 ratings
1 star 2 stars 3 stars 4 stars 5 stars
comments

Jane Says Tab

#----------------------------------PLEASE NOTE---------------------------------#
#This file is the author's own work and represents their interpretation of the #
#song. You may only use this file for private study, scholarship, or research. #
#------------------------------------------------------------------------------##

From: Howard Wright (Hman) 

                        Jane Says - Jane's Addiction
                     ---------------------------------


                                     tabbed by Howard Wright
                                     spxhaw@uk.ac.cf.thor



This one only has a few different shapes, it just repeats
them over and over.


E---3-----3-3-----------------------------------------
B---3-----3-3-----2--2--------------------------------
G---0-----0-0-----2--2--2-4p2-------------------------
D---0-----0-0-----2--2--2-----4p2---------------------
A-----------------0--0--0-----------------------------
E---3-----3-3-----------------------------------------



Repeat this for about 60% of the song.


The other bit is :


[ Tab from: http://www.guitartabs.cc/tabs/j/janes_addiction/jane_says_tab.html ]
E---3---3-3---3---3--3--3--3------3---3-3---3---3--3--3--3--
B---3---3-3---3---2--2--2--2------3---3-3---3---2--2--2--2--
G---0---0-0---0---0--0--0--0------0---0-0---0---0--0--0--0--
D---0---0-0---0---0--0--0--0------0---0-0---0---0--0--0--0--
A-----------------------------------------------------------
E---3---3-3---3-------------------3---3-3---3---------------



I'm not sure about the strumming pattern - I think the record
uses upstrokes on the second shape, but have a listen to get 
the right rhythm.


That's all !


Howard
From: PUREPIG@aol.com
Date: Tue, 28 Nov 1995 08:24:16 -0500
Subject: TAB: JANE SAYS- jane's addiction


JANE SAYS--jane's addiction

the previous tab had the right idea, but was a little off

--3------3-3-3---------------------------------------------------------
--3------3-3-3-2-----2-2-2---------------------------------------------
--0------0-0-0-2-----2-2-2-4p2-----------------------------------------
--0------0-0-0-2-----2-2-2----4p2--------------------------------------
--2------2-2-2-0-----0-0-0---------------------------------------------
--3------3-3-3---------------------------------------------------------

i'm not sure about the rest, any questions, comments:

  purepig@aol.com  (jeremy kerans)

Comments