Janes Addiction - Jane Says Chords & Tabs

 

Jane Says Chords & Tabs

Janes Addiction Chords & Tabs

Version: 1 Type: Bass Tab 0 ratings
1 star 2 stars 3 stars 4 stars 5 stars
comments

Jane Says Bass Tab

   
Generated by Fast Tab, do not erase
====================
>From            : Sam Hoffman 
Artist          : Jane's Addiction - Jane Says
Bass Performance: Flea
Comments:       : This is my rendition of it. At the
                  bottom is another rendition of 
                  Jane Says by 
                  David Piniella 
Strings: E,A,D,G
====================

Main Lick
G|-----------------------------|
D|-----------------------------|
A|-----------------2-----------|
E|--3--3--5--5--5-----5--3--5--|


"I'm gonna kick tomorrow..."
G|---------------------|
D|--5-5-5-4-4----------|
A|------------7-7-4-4--|
E|---------------------|

[ Tab from: http://www.guitartabs.cc/tabs/j/janes_addiction/jane_says_btab.html ]
>Date: Sat, 11 Nov 1995 19:57:39 -0500 (EST)
>From: david a piniella 
>Subject: /j/janes_addiction/jane_says.btab
>
>"jane says"
> 
>by jane's addiction, from `nothing's shocking'
> 
> 
>intro/main lick: 
>"jane says..."
>G|-----------|
>D|-----------|
>A|-----------|
>E|--3---5-5--|
>[16 times]
> 
>"i'm gonna kick tomorrow..."
>G|---------------------|
>D|--5-55555--4---------|
>A|---------------7--4--|
>E|---------------------|
>[4 times]
> 
>main lick, 16 times
> 
>"i'm gonna kick tomorrow...", 4 times
> 
>main lick, 3 times
> 
> "she can't hit!"
>G|----------------|
>D|----------------|
>A|----------------|
>E|--3-3-3----5-5--|
> 
>main lick, 16 times
> 
>"i want them if they want me..."
>G|----------------------|
>D|--5--55555-4----------|
>A|--------------7-4-----|
>E|-------------------5--|
>[4 times, the low A is on the last time only.]
> 
>main lick, 3 times
> 
>"she can't hit!"
> 
>main lick, 5 times
> 
>"jaaaaane says" lick is the same as "i want them if they want me"
>play it 4 times.
> 
>main lick 14 times, with a second bass playing this:
> 
>G|-----------------|--12----14----|--12---------------------|
>D|-----------12h14-|--------------|-----12------------------|
>A|-10--12-12-------|----------12--|--------12-12-12--12-12--|
>E|-----------------|--------------|-------------------------|
> 
>G|--0--12/14--------------|
>D|------------7-7--14-----|
>A|--------------------12--|
>E|------------------------|
>[4 times]
> 
>G|-12--12-12-12-12----14--|
>D|-----------------12-----|
>A|------------------------|
>E|------------------------|
>[twice, into a fade]
> 
>--
>
>"i'm in the midst of a trauma, leave a message and i'll call you back..."
>
>-D

Additions/corrections to this file welcomed - send to questions@olga.net
--------------
Last Update     Jan 98

David A Piniella      dpinie01@fiu.edu
Sam Hoffman           odelay@navpoint.com



Comments