Janes Addiction - Been Caught Stealin Chords & Tabs

 

Been Caught Stealin Chords & Tabs

Janes Addiction Chords & Tabs

Version: 1 Type: Tab 0 ratings
1 star 2 stars 3 stars 4 stars 5 stars
comments

Been Caught Stealin Tab

   
Tabbed by Daman Simantiris
paulringodaman@aol.com

Been Caught Stealing
Jane's Addiction

Standard Tuning

This is the correct version of the song. During the da da da da part
after the solo is where it gets tricky, it mighy be slightly off.

Intro:

E----4-----3
B----3-----2
D----3-----2
G----3-----2
A-----------
E-----------
   
The entire verse is just a G - ALL VERSES


E--3--                              3
B--3--                              3
D--4--                              0   
G--5--      DO NOT PLAY G AS:       0  You want Dave's scruffy sound
A--5--                              2
E--3--                              3
[ Tab from: http://www.guitartabs.cc/tabs/j/janes_addiction/been_caught_stealin_tab.html ]
There is a lot of scruff during the song, so kinda improvise.  Vary
your strum pattern, and be sure to use up/down strokes!
Play kinda sloppy, palm mute, change the G chord
slightly...it's all up to you

It is played in G - All verses and solos I say again

Chorus:
   C C    C        Bb  C Bb   F   G 
E-----------------------------1---3
B--5-5----5---------3--5--3---1---3
D--5-5----5---------3--5--3---2---4
G--5-5----5---------3--5--3---3---5
A-----------------------------3---5
E-----------------------------1---3
                   (These follow the lyrics!!)

2nd Half of Chorus:

    C   (scruff)
E-----------------6-------4---3
B---5----x-x------5-------3---2
D---5----x-x------5-------3---2
G---5----x-x--------------3---2
A------------------------------
E------------------------------

Da da da da da da Bridge After Solo:  (This is iffy, but close)

    C 
E---8--
Comments