Jamisonparker - Your Song Chords & Tabs

 

Your Song Chords & Tabs

Jamisonparker Chords & Tabs

Version: 1 Type: Tab 0 ratings
1 star 2 stars 3 stars 4 stars 5 stars
comments

Your Song Tab

   
Band:   JamisonParker
Song:   Your Song
Alblum: Sleepwalker
Tuning: Standard


Intro (Guitar 1): 2X
e|-----------------------------------------------------------------------|
b|-----------10------10------10------10------10-----10---11---10----10---|
g|---------10--10--10--10--10--10--10--10--10--10-10--10---10---10----10-|
d|-10-10-10------10------10------10-------8------8-----------8----10-----|
a|-----------------------------------------------------------------------|
E|-----------------------------------------------------------------------|
[ Tab from: http://www.guitartabs.cc/tabs/j/jamisonparker/your_song_tab.html ]
Guitar 2:
e|-------------------------------------------------|
b|-------------------------------------------------|
g|-------------------------------------------------|
d|-------------------------------------------------|
a|-----7-7------7----7-8--8s10-10-12-12s13-12-10-8-|
E|-8-10-----8-10-8--8------------------------------|

Verse:
e|-------------------------------------------------|
b|-------------------------------------------------|
g|-------------------------------------------------|
d|-------------------------------------------------|
a|-----7-7------7----7-8--8s10-10-12-12s13-12-10-8-|
E|-8-10-----8-10-8--8------------------------------|

Chorus:
e|---------|
b|---------|
g|-5-------|
d|-5-5-7-3-|
a|-3-5-7-3-|
E|---3-5-1-|
Comments