Jamiroquai - You Give Me Something Chords & Tabs

 

You Give Me Something Chords & Tabs

Jamiroquai Chords & Tabs

Version: 1 Type: Bass Tab 0 ratings
1 star 2 stars 3 stars 4 stars 5 stars
comments

You Give Me Something Bass Tab

Artist - Jamiroquai
Song - You Give Me Something


Verse

G -------7----------------------------------------|
D ------------------------9-----------------------|
A --4-55----05------------------------------------|
E 7-------------5677--707----05-33--303--5677-707-|

or you can try this:
[ Tab from: http://www.guitartabs.cc/tabs/j/jamiroquai/you_give_me_something_btab.html ]
|------------7----------------------------------------------------------|
|-----------------------------9------7-----------5-----------------9----|
|-3-4-5-5----5--5---------------------0-0-------------------------------|
|-------------------5-6-7-7---7--7--------3--3---3--3---5-6-7--7---7--7-|

Chorus

G -------7------------------------------------------|
D --------------------9----9------------------------|
A --4-55----05--------------------------------------|
E 7-------------5677---707-----05-33--303--5677-707-|

|-------------|
|-9-9--7------|
|---------9-9-|
|-------------|
Comments