Jamiroquai - When You Gonna Learn Chords & Tabs

 

When You Gonna Learn Chords & Tabs

Jamiroquai Chords & Tabs

Version: 2 Type: Bass Tab 0 ratings
1 star 2 stars 3 stars 4 stars 5 stars
comments

When You Gonna Learn Bass Tab

Jamiroquai 
"When You Gonna Learn."
>From the album "Emergency on planet earth."
Tabbed by Travis Sanders
for questions, comments and corrections please email 
travis_sanders@hotmail.com
*this is the basic bass line for wygl. Near the end stu lets 
everything go like ussuall but Its hard to figure all of the variations 
out so I decided to keep it simple. 



Verses (between the 5 and 0 is played pretty fast)
[ Tab from: http://www.guitartabs.cc/tabs/j/jamiroquai/when_you_gonna_learn_btab_ver_2.html ]
| ---5-5-5---5------------------------------------------------- | 
| ------5-------0-123----0--3--3--2---2---2--2--3--3---3---4--- |      
| ----------------------3-----3-----2------2------3---1---2---- |
| ------------------------------------------------------------- |

Chorus (First part played only in the beging of the chorus)
    (first part)                  (Second part)
| -----3----3---3--3--2--1--|-----5---5---5---5---1-----0---- |
| --------------------------|-------------------------------- |
| --1----1---1---1----------|--3-----3---3---3--------------- |
| --------------------------|-------------------------------- |
   
         (third part
| ---3---3---3---3----------------5- |  (back to the second part of
| ------------------0-----------5--- |   of the chorus.)
| -1---1---1---1---------4---------- |
| ---------------------------------- |
Comments