Jamiroquai - Whatever It Is I Just Cant Stop Chords & Tabs

 

Whatever It Is I Just Cant Stop Chords & Tabs

Jamiroquai Chords & Tabs

Version: 1 Type: Bass Tab 0 ratings
1 star 2 stars 3 stars 4 stars 5 stars
comments

Whatever It Is I Just Cant Stop Bass Tab

This is WELL funky! just repeat this through out:
(listen to it to get the right rhythm tho)

[ Tab from: http://www.guitartabs.cc/tabs/j/jamiroquai/whatever_it_is_i_just_cant_stop_btab.html ]
|--------------------------------------------------------|
|-------------4-5-6--------------------------------------|
|7---5-7----7------------5-7------------------5-6-7------|
|--7----------------0---------4--5--6--7----7--------0---|


|-----------4-------------4---------|
|7-6~---0h2---2---2-0h1/2----------o|
|----------------------------5--6--o|
|-----------------------------------|
Comments