Jamiroquai - Whatever It Is Chords & Tabs

 

Whatever It Is Chords & Tabs

Jamiroquai Chords & Tabs

Version: 1 Type: Bass Tab 0 ratings
1 star 2 stars 3 stars 4 stars 5 stars
comments

Whatever It Is Bass Tab

Riff #1
|---------------------------------------------------------------------9-------------------|
|--------------4-5-6----------------------------------6---5---------9---7h9---------------|
|-7---5-7--------------------5-7---------X-5-6-7----------------5/7---------X-5---6-------|
|---7----------------0-----------4-5-6-7---------0----------------------------------------|

Riff#2
|--------------------------------------------------------------------6-------------------|
|--------------1-2-3------------------------------------6--4h2~~----6--4h6---------------|
|-4---2-4--------------------2-4-------------2-3-4--2-------------24--------2--3---------|
|---4----------------0-----------0--2--3-4--4--------------------------------------------|
[ Tab from: http://www.guitartabs.cc/tabs/j/jamiroquai/whatever_it_is_btab.html ]
All is around those two riff but there is a lot of variations

Here are some
|------------------------------------------------------------------------------------------|
|--------------4-5-6----------------------------------6---5---------7-9-9-9-9-9------------|
|-7---5-7--------------------5-7---------X-5-6-7----------------5/7-------------X-5---6----|
|---7----------------0-----------4-5-6-7---------0-----------------------------------------|

or

|---------------------------------------------------------------------6-4--------------------|
|--------------1-2-3----------------------------------------4-2-----------0-4-5-6------------|
|-4---2-4--------------------2-4-------------2-3-4--2-4--2-------2-4--------------0-2--3-----|
|---4----------------0-----------0--2--3-4--4------------------------------------------------|
Comments