Jamiroquai - Spend A Lifetime Chords & Tabs

 

Spend A Lifetime Chords & Tabs

Jamiroquai Chords & Tabs

Version: 1 Type: Bass Tab 0 ratings
1 star 2 stars 3 stars 4 stars 5 stars
comments

Spend A Lifetime Bass Tab

|-**-|                                           |-   **   -|       |-        **       -|
|-------------------------------------------------|-----------------------------------------------------|
|-------------------------------------------------|-----------------------------------------------------|
|-------------5-7---------------------------------|--------3-5--5-5--5-7-7------------------------------|
|-8-8----8-8-------5-5---3-3---2-2---1-1-0-0-5-5--|--5-3-5-------------------5-5---3-3---2-2---1-1-0-0--|

|-------------------------------------------------|-----------------------------------------------------|
|-------------------------------------------------|-----------------------------------------------------|
|-------------7-7---------------------------------|--------3-5-----7-----7------------------------------|
|-8-8----8-8-------5-5---3-3---2-2---1-1-0-0-5-5--|--5-3-5-------------------5-5---3-3---2-----1---0----|
[ Tab from: http://www.guitartabs.cc/tabs/j/jamiroquai/spend_a_lifetime_btab.html ]
|-------------------------------------------------|-----------------------------------------------------|
|-------------------------------------------------|-----------------------------------------------------|
|-------------5-7---------------------------------|--------3-5--5-5--5-7-7------------------------------|
|-8-8----8-8-------5-5---3-3---2-2---1-1-0-0-5-5--|--5-3-5-------------------5-5---3-----2-----1---0----|

|-------------------------------------------------|-----------------------------------------------------|
|-------------------------------------------------|-----------------------------------------------------|
|-------------5-7---------------------------------|--------3-5-----7-----7------------------------------|
|-8-8----8-8-------5-5---3-3---2-2---1-1-0-0-5-5--|--5-3-5-------------------5-5---3-3---2-2---1-1-0-0--|

|-------------------------------------------------|-----------------------------------------------------|
|-------------------------------------------------|-----------------------------------------------------|
|-------------------------------------------------|--------3-5-----7-----7------------------------------|
|-8-8--------------------3-3---2-2---1-1-0-0-5-5--|--5-3-5-------------------5-5---3-3---2-2---1-1-0-0--|

|-------------------------------------------------|-----------------------------------------------------|
|-------------------------------------------------|-----------------------------------------------------|
|-------------5-7---------------------------------|--------3-5-----7-----7------------------------------|
|-8-8----8-8-------5-5---3-3---2-2---1-1-0-0-5-5--|--5-3-5-------------------5-5---3-3---2-2---1-1-0-0--|
Comments