Jamiroquai - Space Cowboy Chords & Tabs

 

Space Cowboy Chords & Tabs

Jamiroquai Chords & Tabs

Version: 2 Type: Bass Tab 0 ratings
1 star 2 stars 3 stars 4 stars 5 stars
comments

Space Cowboy Bass Tab

Jamiroquai~~~~~~~~~~~~~~~~~~~~~~~~~~~~~~~~~~~~~~~~~~~~~~~~~~~~~~~~~~~~~~
Space Cowboy  (Video Version)
Tabbed by: Eric Siljander  < M_Siljander@bc.sympatico.ca >

   organ intro
G-|--8----10----13--|
D-|-----------------|
A-|--6----8-----11--|
E-|-----------------|

 verses
|------(6)-------(5)--------4----------------------------
|------------------------------------------------6--6h8--
|--4---------3---------2---------------------------------
|--------------------------------2--2--2-2--2/4----------


-------8-------------5-5-------------6---------------------------------
--------8-----6-----------------------6-----4------------------6--6h8--
-4---6---6--4--4--3-------3-3--2---4---4--2--2-------------------------
------------------------------------------------2--2--2-2-2/4----------

                                        transition to chorus
----6-6------------4-4-----------------|-----------------------------|
----------------------------------6-6--|--------4-6-4-6/8--6---------|
-4-------4-4----2-------2-2------------|-----6----------------8--6~--|
-------------------------------4-------|--4--------------------------|

  chorus**
||-----------------------------------------------------------------
||------------------6/8--6--8--6-----------------------------------
||--6--8--------------------------8--6----6--8-------4h6-6-4-------
||----------4--6--------------------------------4h6----------6--4--

-----------------------||
-----------------------||
--4--6h8-6-4--6/8-6-4--||
-----------------------||
[ Tab from: http://www.guitartabs.cc/tabs/j/jamiroquai/space_cowboy_btab_ver_2.html ]
 interlude-1
|----------------11-11h13--|         |---------------11---8--10--13-|
|--------------------------| repeat  |------------------------------|
|--------------------------| 6 times |--------------------6--8---11-|
|--2h4-4--2h4-4------------|  then...|-2h4-4--2h4-4-----------------|

  Variation in 2nd and last chorus**
||----8----8-------10--10------------------------------------
||-----------------------------6/8-6-8-6---------------------
||--6----6----6--8---8---x---------------8-6---6--8----------
||-------------------------6---------------------------4--6--

--8--6-----------------------------||
--------8--6-----6/8~--6-6--6/8~~--||
--------------8--------------------||
-----------------------------------||

 interlude-2
|----------------11-11h13--|       |---------------11-11h13xx11x11xx11-|
|--------------------------|repeat |-----------------------------------|
|--------------------------|6 times|-----------------------------------|
|--2h4-4--2h4-4------------|then...|-2h4-4--2h4-4----------------------|

then repeat normal interlude part 3 more times, then resume the other two
chorus parts.

Alright, remember this is the video version, from the single, NOT the
version that's on the album. The album version isn't nearly as good (at
least in my opinion;), and it is a lot harder to tab. Besides, Jami
plays this version when they play live.

I "**"'ed the chorus parts because as Stuart often does, he puts in a
hell of a lot of fills that would take forever to figure out,
so I just put down a couple that I use.

So if anyone has better fills, corrections, comments, or questions,
please e-mail me!     Have fun!!

Comments