Jamiroquai - Seven Days In Sunny June Chords & Tabs

 

Seven Days In Sunny June Chords & Tabs

Jamiroquai Chords & Tabs

Version: 1 Type: Chords 0 ratings
1 star 2 stars 3 stars 4 stars 5 stars
comments

Seven Days In Sunny June Chords

   
intro & outro
[ Tab from: http://www.guitartabs.cc/tabs/j/jamiroquai/seven_days_in_sunny_june_crd.html ]
     Bm7      Fm          Bm7      Fm          Am       Em        
E||--2--------1--------|--2--------1--------|--0--------0--------|
B||--3--------1--------|--3--------1--------|--1--------0--------|
G||--2--------1--------|--2--------1--------|--2--------0--------|
D||--4--------3--------|--4--------3--------|--2--------2--------|
A||--2--------3--------|--2--------3--------|--0--------2--------|
E||-----------1--------|-----------1--------|-----------0--------|


  C        Bm         
--0--------2--------||
--1--------3--------||
--0--------4--------||
--2--------4--------||
--3--------2--------||
--------------------||...and repeat...(?)
Comments