Jamiroquai - Revolution 1993 Chords & Tabs

 

Revolution 1993 Chords & Tabs

Jamiroquai Chords & Tabs

Version: 2 Type: Bass Tab 0 ratings
1 star 2 stars 3 stars 4 stars 5 stars
comments

Revolution 1993 Bass Tab

Tune E down 1 step

 Riff-1
|-------------|-------------|--------------|-------------|
|-------------|-------------|--------------|-------------|
|-------------|-------------|--------------|-------------|
|-------2--2--|-------0--0--|------0-5--5--|----5-p4--4--|

|--------3-----5---|------------------|--------------|-------5---5--5p3-|
|---5--------------|------------------|--------------|------------------|
|------1---3-------|-1--3-1-----------|--------------|----/3--/3--------|
|-4----------------|--------4-2-0--0--|------0-5--5--|------------------|

 Riff-2
|-------------|-------------|--------------|-------------|
|-------------|-------------|--------------|-------------|
|-------------|-------------|--------------|-------------|
|-------2--2--|-2--2--0--0--|-0--0-0-5--5--|-5--5--4--4--|
[ Tab from: http://www.guitartabs.cc/tabs/j/jamiroquai/revolution_1993_btab_ver_2.html ]
|---------3-3---5--|------------------|--------------|-------5---5--5p3-|
|---5-5------------|------------------|--------------|------------------|
|-------1----3-----|-1--3-1-----------|--------------|----/3--/3--------|
|-4----------------|--------4-2-0--0--|-0--0-0-5--5--|-5----------------|

 Riff-3
|-------------|-------------|--------------|-------------|
|-------------|-------------|--------------|-------------|
|-------------|-------------|--------------|-------------|
|-------2--2--|-------0--0--|-----(0)5--5--|----(5)4--4--|

|--------3(3)--5---|------------------|--------------|-------5---5--5p3-|
|---5(5)-----------|------------------|--------------|------------------|
|------1---3-------|-1--3-1-----------|--------------|----/3--/3--------|
|-4----------------|--------4-2-0--0--|------0-5--5--|------------------|
Comments