Jamiroquai - Mr Moon Chords & Tabs

 

Mr Moon Chords & Tabs

Jamiroquai Chords & Tabs

Version: 3 Type: Bass Tab 0 ratings
1 star 2 stars 3 stars 4 stars 5 stars
comments

Mr Moon Bass Tab

Chorus (switch between the lines)
|---------------------|-----------5-4--------|
|--------------------5|-------3--------------|
|---------------------|-3h5-5----------------|
|-3----3--4--5--------|----------------------|

|---------------------|-----------5-4--------|
|--------------------5|-------3-------5-3h5-5|
|---------------------|-3h5-5----------------|
|-3----3--4--5--------|----------------------| 

Verse 1 (slight variations in the first 2 bars, mostly)
|------5------5-------|---7-----7-----7-----|---------------------|---------------------|
|---------------------|---------------------|----3-1-3--3--1-1-1--|---3--1--3--1--3p1---|
|-3---------3---3---4-|5-----5-----5--------|--------------m-m-m--|-------------------3-|
|---------------------|------------------5--|1-------------------|---------------------|

|---5----5----5-------|---7-----7-----7-7---|---------------------|---------------------|
|---------------------|---------------------|----3-1-3--3--1-1-1--|---3--1--3--1--3p1---|
|-3----3----3---3---4-|5-----5-----5--------|--------------m-m-m--|-------------------3-|
|---------------------|---------------------|1-------------------|---------------------|

|---5----5----5-------|---7-----------------|---------------------|---------------------|
|---------------------|---------------------|----3-1-3--3--1-1-1--|---3--1--3--1--3p1---|
|-3----3----3---3---4-|5-----5-----5--5-----|--------------m-m-m--|-------------------3-|
|---------------------|------------------5--|1-------------------|---------------------|
 (play twice, play a slide on E-string instead of last 4 notes the second time)
|---5----5----5-------|---------------------|---------------------|---------------------|
|---------------------|---------------------|----3-1-3--3--1-1-1--|---3--1--3--1--3p1---|
|-3----3----3---3---4-|5-----5---5-5--5-----|--------------m-m-m--|-------------------3-|
|---------------------|------------------5--|1-------------------|---------------------|

 Chorus....

 Verse 2
|------5------5-------|---------------------|---------------------|---------------------|
|---------------------|---------------------|----3-1-3--3--1-1-1--|---3--1--3--1--3p1---|
|-3---------3---3---4-|5-----5-----5--5-----|--------------m-m-m--|-------------------3-|
|---------------------|------------------5--|1-------------------|---------------------|
 (play twice)
|---5----5----5-------|---------------------|---------------------|---------------------|
|---------------------|---------------------|----3-1-3--3--1-1-1--|---3--1--3--1--3p1---|
|-3----3----3---3---4-|5-----5---5-5--5-----|--------------m-m-m--|-------------------3-|
|---------------------|------------------5--|1-------------------|---------------------|

|---5----5-5--5-------|---7-----------------|---------------------|---------------------|
|---------------------|---------------------|----3-1-3--3--1-1-1--|1--3-----3p1--3p1--1-|
|-3----3----3---3---4-|5-----5---5-5--5-----|--------------m-m-m--|---------------------|
|---------------------|------------------5--|1-------------------|---------------------|

|---5----5----5-------|---------------------|---------------------|---------------------|
|---------------------|---------------------|----3-1-3--3--1-1-1--|---3--1--3--1--3p1---|
|-3----3----3---3---4-|5-----5---5-5--5-----|--------------m-m-m--|-------------------3-|
|---------------------|------------------5--|1-------------------|---------------------|

|---5----5----5-------|---7-----------7-----|---------------------|---------------------|
|---------------------|---------------------|----3-1-3--3--1-1-1--|---3--1--3--1--3p1---|
|-3----3----3---3---4-|5-----5-----5--------|--------------m-m-m--|-------------------3-|
|---------------------|------------------5--|1-------------------|---------------------|
[ Tab from: http://www.guitartabs.cc/tabs/j/jamiroquai/mr_moon_btab_ver_3.html ]
|---5----5-5--5-------|---7-----------------|---------------------|---------------------|
|---------------------|---------------------|----3-1-3--3--1-1-1--|---3--1--3--1--3p1---|
|-3----3----3---3---4-|5-----5-----5--5-----|--------------m-m-m--|-------------------3-|
|---------------------|------------------5--|1-------------------|---------------------|

|---5----5-5--5-------|---7-----------------|---------------------|---------------------|
|---------------------|---------------------|----3-1-3--3--1-1-1--|---1--3--3p1--3p1--1-|
|-3----3----3---3---4-|5-----5---5-5--5-----|--------------m-m-m--|---------------------|
|---------------------|------------------5--|1-------------------|---------------------|

|--------5------------|---------------------|---------------------|---------------------|
|---------------------|---------------------|----3-1-3--3--1-1-1--|1--3------3p1--3p1---|
|-3----3----3---3---4-|5-----5---5-5--5-----|--------------m-m-m--|-------------------3-|
|---------------------|------------------5--|1-------------------|---------------------|

|---5----5----5-------|---------------------|---------------------|---------------------|
|---------------------|---------------------|----3-1-3--3--1-1-1--|---3--1--3---some----|
|-3----3----3---3---4-|5-----5---5-5--5-----|--------------m-m-m--|-------------slide---|
|---------------------|------------------5--|1-------------------|---------------------|

 Chorus...

 Verse 3
|------5------5-------|---7-----7-----7-----|---------------------|---------------------|
|---------------------|---------------------|----3-1-3--3--1-1-1--|---3--1--3--1--3p1---|
|-3---------3---3---4-|5-----5-----5--------|--------------m-m-m--|-------------------3-|
|---------------------|------------------5--|1-------------------|---------------------|

|---5----5----5-------|---7-----7-----------|---------------------|---------------------|
|---------------------|---------------7----7|----3-1-3--3--1-1-1--|1--3-------1h3-1h3-3-|
|-3----3----3---3---4-|5-----5--------------|--------------m-m-m--|---------------------|
|---------------------|------------5----5---|1-------------------|---------------------|
 (11 = 1 twice, very fast)
|---5----5----5-------|---------------------|---------------------|---------------------|
|---------------------|---------------------|----3-11-3-3--1-1-1--|--3p1-3p1--3-3--3-1--|
|-3----3----3---3---4-|5-----5---5-5--5-----|--------------m-m-m--|---------------------|
|---------------------|------------------5--|1-------------------|---------------------|

|---5----5----5-------|---7-----------------|---------------------|---------------------|
|---------------------|---------------------|----3-1-3--3--1-1-1--|1--3-------1h3-1h3-3-|
|-3----3----3---3---4-|5-----5-----5--5-----|--------------m-m-m--|---------------------|
|---------------------|------------------5--|1-------------------|---------------------|

|---5----5------------|---7-----------------|---------------------|---------------------|
|---------------------|---------------------|----3-1-3--3--1-1-1--|---3--1--3--1--3p1---|
|-3----3----3---3---4-|5-----5---5-5--5-----|--------------m-m-m--|-------------------3-|
|---------------------|------------------5--|1-------------------|---------------------|

|-----5--5------------|---------------------|---------------------|---------------------|
|---------------------|---------------------|----3-1-3--3--1-1-1--|---3--1--3--1--3p1---|
|-3----3----3---3---4-|5-----5---5-5--5-----|--------------m-m-m--|-------------------3-|
|---------------------|------------------5--|1-------------------|---------------------|

|---------------------|---------------------|---------------------|---------------------|
|---------------------|---------------------|----3-11-3-3--1-1-1--|---3--1--3--1--3p1---|
|-3----3----3---3---4-|5-----5---5-5--5-----|--------------m-m-m--|-------------------3-|
|---------------------|------------------5--|1-------------------|---------------------|

|------5--------------|---------------------|---------------------|---------------------|
|---------------------|---------------------|----3-1-3--3--1-1-1--|---3-----3p1--3p1--1-|
|-3---------3---3---4-|5-----5---5-5--5-----|--------------m-m-m--|---------------------|
|---------------------|------------------5--|1-------------------|---------------------|
Comments