Jamiroquai - Manifest Destiny Chords & Tabs

 

Manifest Destiny Chords & Tabs

Jamiroquai Chords & Tabs

Version: 1 Type: Bass Tab 0 ratings
1 star 2 stars 3 stars 4 stars 5 stars
comments

Manifest Destiny Bass Tab

JAMIROQUAI
Manifest Destiny (Intro)
~~~~~~~~~~~~~~~~~~~~~~~~~~~~~~~~~~~~~
>From "The Return Of The Space Cowboy"


Tabbed by Scotia (scotia@thpub.freeserve.co.uk)~~~~~~~~~~~~~~~~~


This is how I play this intro, & it sounds quite close to the
recorded original.
You have to listen quite closely to the note length/use of staccato
& muting in order to get it to sound right. I thought about going
into detail in the tab, but this may make it kinda complex (hey,
this is my first one, okay!?)
The slide up to and down from the rake (do you think that's what he 
does?) is from about the 15th fret, or wherever you like really. Just
get the sound right.

Be sure get enough punch from your plucking hand, and those smooth
slides from your fretting hand and that should do the trick.


[ Tab from: http://www.guitartabs.cc/tabs/j/jamiroquai/manifest_destiny_btab.html ]
G|-x11-----------------------------------------------9h11--x9--
D|------9--7--7h9--9/11--8--------4h5p4------------9-----------
A|----------------------------0----------7--9--10--------------
E|-------------------------------------------------------------


G|-7--9-7---7-9-7--11--12--11-9-7------------------------------
D|-------------------------------------------------------------
A|-------------------------------------------------------------
E|-------------------------------------------------------------

				rake
G|-11\--------------------------x--------------------9h11--x9--
D|------9--7--7h9--9/11--8-----/-x----------------9------------
A|--------------------------------x\---/7--9--10---------------
E|-------------------------------------------------------------

		    (not sure 'bout this bit)
G|-7--9-7---9--11--12--14--12--11--9--11--12\------------------
D|-------------------------------------------------------------
A|-------------------------------------------------------------
E|-------------------------------------------------------------


Contact me if you have any suggestions, improvements, or anything
to say in general! (& if you've got the chorus....)

Comments